Song name
# A B C D E F G H I J K L M N O P Q R S T U V W X Y Z

Slightly Stoopid - Righteous Man tab

-------------------------------------------------------------------------------
			     Righteous Man - Slightly Stoopid
-------------------------------------------------------------------------------
Tabbed by:Croady
Email:Croady@yahoo.com

Tuning:Standard
  

Beginning reggae part 
      D        G
e|----5--------3-------------------------------------------------------------|
B|----7--------3-------------------------------------------------------------|
G|----7--------4-------------------------------------------------------------|
D|----7--------5-------------------------------------------------------------|
A|----5--------5-------------------------------------------------------------|
E|-------------3-------------------------------------------------------------|

  Punk part 1                        use this as a ending every now and then
        D      F   G                    E F E
e|---------------------------------------------------------------------------|
B|---------------------------------------------------------------------------|
G|---------------------------------------------------------------------------|
D|------7-----10--12-------------------9-10-9--------------------------------|
A|------5-----8---10-------------------7-8--7--------------------------------|
E|---------------------------------------------------------------------------|

verse punk part
      D   G   C  G
e|---------------------------------------------------------------------------|
B|---------------------------------------------------------------------------|
G|---------------------------------------------------------------------------|
D|----7------5---------------------------------------------------------------|
A|----5---5--3--5------------------------------------------------------------|
E|--------3-----3------------------------------------------------------------|


The ending is same DFG part its just the lower octave googd luck Peace!
Tap to rate this tab
# A B C D E F G H I J K L M N O P Q R S T U V W X Y Z