Song name
# A B C D E F G H I J K L M N O P Q R S T U V W X Y Z

Slightly Stoopid - Devils Door tab

guitar 1 just plays these two chords the entire song.

guitar 1
e----5----5----|
B----5----5----|
G----5----5----|
D----5----4----|
A----7----5----|
E----5----X----|

guitar 2 plays this riff in rhythm with guitar 1 

e----------------------------------------------------------|
B----------------------------------------------------------|
G----------------------------------------------------------|
D----------------------------------------------------------|
A-------5--3--------5-----3--------5--3-----5--------------|
E-----5--------3/5-----5--------2----------2-2---2---3---4-|


e----------------------------------------------------------|
B----------------------------------------------------------|
G----------------------------------------------------------|
D------------------------------------------4--4--5--6--7---|
A-------5--3--------5-----3--------5--3--------------------|
E-----5-------3/5-----5--------2--------2------------------|
	
Tap to rate this tab
 
# A B C D E F G H I J K L M N O P Q R S T U V W X Y Z