Slightly Stoopid - Circle House Blues tab

I'll start off by saying this the 1st tab I've ever made so sorry if it's a little
 I just learned it by ear today so I know it's not EXACTLY how Slightly does it, but if you
it like this it will definitely be recognizable.  Hopefully I'll knock out the solo soon 
and tab that as well...

Oh, and I made a video so you have a reference to go off of, so please rate both and
 Hope this all helps!  :)

youtube.com/watch?v=wCLyZmX9pQU


E|---------------------------------------------------------------------|
B|------7-7-x-x-----------------12-12-x-x------------------7-7-x-x-----|
G|------7-7-x-x-----------------12-12-x-x------------------7-7-x-x-----|
D|------6-6-x-x-----------------11-11-x-x------------------6-6-x-x-----|
A|------7-7-x-x----------7--0----------------------7-------7-7-x-x-----|
E|--0-------------7--10---------------------7--10------0---------------|

E|---------------------------------------------------------------------|
B|-------------------7-7-x-x---------------------12-12-x-x-------------|
G|-------------------7-7-x-x---------------------12-12-x-x-------------|
D|-------------------6-6-x-x---------------------11-11-x-x-------------|
A|-------------------7-7-x-x--------------7--0-------------------------|
E|--7--10/12/10--0-------------7--10--10-------------------------------|

E|---------------------------------------------------------------------|
B|----------------------------------------------7-7-x-x----------------|
G|------------------12-12-x-x-------------------7-7-x-x----------------|
D|------------------12-12-x-x-------------------6-6-x-x----------------|
A|-----------7--0---11-11-x-x------------7------7-7-x-x----------------|
E|--10/9/10---------------------10/9/10-----0--------------------------|

E|---------------------------------------------------------------------|
B|--------------------7-7-x-x------------------------------------------|
G|--------------------7-7-x-x------------------------------------------|
D|--------------------6-6-x-x------------------------------------------|
A|--------------------7-7-x-x----------7/2-----------------------------|
E|--7--10--10--7--0-------------7--10----------------------------------|

E|---------------------------------------------------------------------|
B|---------2-2---4p2-----2-------------------------12--12--------------|
G|---------2-2--------4------4p2-----2-------------12--12--4p2-----2---|
D|---------2-2--------------------4----------------11--11-------4------|
A|--2--2--------------------------------2/10--10-----------------------|
E|---------------------------------------------------------------------|

E|---------------------------------------------------------------------|
B|--------------------7-7-x-x-----------------(12)---------------------|
G|--------------------7-7-x-x-----------------(12)---------------------|
D|--4p2--2--4--2------6-6-x-x-----------------(11)-(x11)---------------|
A|--------------------7-7-x-x------------7----(12)---------------------|
E|----------------0-------------10/9/10--------------------------------|

Any questions, just ask.  :)
Tap to rate this tab
 
# A B C D E F G H I J K L M N O P Q R S T U V W X Y Z