Guitaretab - guitar tabs
Song name
# A B C D E F G H I J K L M N O P Q R S T U V W X Y Z

Slightly Stoopid - I Would Do For You tab

-------------------------------------------------------------------------------
		        I Would Do For You - Slightly Stoopid
-------------------------------------------------------------------------------
Tabbed by: Hostile Apostle

Please send suggestions and corrections to Mareed129@aol.com

Tuning: Standard

(0:00)
e|----------------------------------------------|
B|----------------------------------------------|
G|----------------------------------------------|
D|----7-7-7-7-7-7------------7-7-7-7-7-7--------|
A|-----------------8----------------------8--5--|
E|--5-----------------5----5--------------------|

e|----------------------------------------------|
B|----------------------------------------------|
G|----------------------------------------------|
D|----7-7-7-7-7-7-------------------------------| X2
A|-----------------8-------3-5-5-3-3-5-5-3-3-5--|
E|--5-----------------5-------------------------|

(0:05)
e|--13-13--12-12--10----------------------------|
B|--13-13--12-12--10----------------------------|
G|--14-14--12-12--11----------------------------|
D|----------------------------------------------|
A|----------------------------------------------|
E|----------------------------------------------|

(0:19)
e|----------------------------------------------|
B|----------------------------------------------|
G|----------------------------------------------|
D|--7-5-4-3--2--2h3p2--0------------------------|
A|----------------------------------------------|
E|----------------------------------------------|

(0:20)
e|----------------------------------------------|
B|----------------------------------------------|
G|----------------------------------------------|
D|----7-7-7-7-7-7------------7-7-7-7-7-7--------|
A|-----------------8----------------------8--5--|
E|--5-----------------5----5--------------------|

e|----------------------------------------------|
B|----------------------------------------------|
G|-----------------------5--7-7-5-5-------------|
D|----7-7-7-7-7-7-------------------7-7---------|
A|-----------------8--------------------8-8--5--|
E|--5-----------------5-------------------------|

(0:20)
e|--13-13--12-12--10-10-10--12--13--12--10------|
B|--13-13--12-12--10-10-10--12--13--12--10------|
G|--14-14--12-12--11-11-11--12--14--12--11------|
D|----------------------------------------------|
A|----------------------------------------------|
E|----------------------------------------------|
[ Tab from: http://www.guitaretab.com/s/slightly-stoopid/246349.html ]
(0:30)
e|----------------------------------------------|
B|----------------------------------------------|
G|----------------------------------------------|
D|----7-7-7-7-7-7------------7-7-7-7-7-7--------| X5
A|-----------------8----------------------8--5--|
E|--5-----------------5----5--------------------|

(0:51)
e|--13-13--12-12--10-10-10--12------------------|
B|--13-13--12-12--10-10-10--12------------------|
G|--14-14--12-12--11-11-11--12------------------|
D|----------------------------------------------| X3
A|----------------------------------------------|
E|----------------------------------------------|

e|--13-13--12-12--10-10-10----------------------|
B|--13-13--12-12--10-10-10----------------------|
G|--14-14--12-12--11-11-11----------------------|
D|----------------------------------------------|
A|----------------------------------------------|
E|----------------------------------------------|

(0:56)
e|----------------------------------------------|
B|----------------------------------------------|
G|----------------------------------------------|
D|----7-7-7-7-7-7-------------------------------|
A|-----------------8-------3-5-5-3-3-5-5-3-3-5--|
E|--5-----------------5-------------------------|

(1:01)
e|----------------------------------------------|
B|----------------------------------------------|
G|----------------------------------------------|
D|----7-7-7-7-7-7------------7-7-7-7-7-7--------|
A|-----------------8----------------------8--5--|
E|--5-----------------5----5--------------------|

e|----------------------------------------------|
B|----------------------------------------------|
G|-----------------------5--7-7-5-5-------------|
D|----7-7-7-7-7-7-------------------7-7---------|
A|-----------------8--------------------8-8--5--|
E|--5-----------------5-------------------------|

(1:11)
e|----------------------------------------------|
B|----------------------------------------------|
G|----------------------------------------------|
D|----7-7-7-7-7-7-------------------------------|
A|-----------------8-------3-5-5-3-3-5-5-3-3-5--|
E|--5-----------------5-------------------------|

e|----------------------------------------------|
B|----------------------------------------------|
G|-----------------------5--7-7-5-5-------------|
D|----7-7-7-7-7-7-------------------7-7---------|
A|-----------------8--------------------8-8--5--|
E|--5-----------------5-------------------------|

(1:11)
e|----------------------------------------------|
B|----------------------------------------------|
G|----------------------------------------------|
D|--7-5-4-3--2--2h3p2--0------------------------|
A|----------------------------------------------|
E|----------------------------------------------|

Rinse and repeat and that's all there is to it. Enjoy.

| PM Palm Mule
| /  Slide up
| \  Slide down
| b  Bend
| h  Hammer-on
| p  Pull-off
| ~  Vibrato
| +  Harmonic
| x  Mute note
===============================================================================
Related for I Would Do For You tab
I Would Do For You chords by Slightly Stoopid