Song name
# A B C D E F G H I J K L M N O P Q R S T U V W X Y Z

Slightly Stoopid - Wiseman tab

-------------------------------------------------------------------------------
			    Wiseman - Slightly Stoopid
------------------------------------------------------------------------------- 
There are a few tabs out there for Wiseman but i feel that this one shows the 
picking pattern a lot better than most of them sounds pretty much spot on

Tabbed by: Cory Anderson
Email:

Tuning: Standard
Intro:
e|---------------------------------------------------------------------------|
B|-----8----8------------------------------------7-777-----------------------|
G|-----9----9--------9-----9-------4----4--------7-777-----------------------|
D|-----9--9-9-------10-----10------5----5--------7-777-----------------------|
A|--77-7--7-7-------10--10-10------5-55-5-----55-5-555-----------------------|
E|----------------88-8--8- 8----33-3-----------------------------------------|

e|---------------------------------------------------------------------------|
B|-----8----8--------------------------------------7-----7-------------------|
G|-----9----9--------9-------8-------4----4--------7-----7-------------------|
D|-----9--9-9-------10-------10------5----5--------7--77-7-------------------|
A|--77-7--7-7-------10--1010-10------5--5-5-----55-5-------------------------|
E|----------------88-8------------33-3--3-3----------------------------------|

Main Progression:
e|---------------------------------------------------------------------------|
B|-----8----8-------------------------------------7----7---------------------|
G|-----9----9---------9-----9-------4----4--------7----7---------------------|
D|-----9--9-9--------10-----10------5----5--------7--7-7---------------------|
A|--77-7--7----------10--10-10------5--5-5-----55-5--5-5---------------------|
E|-----------------88-8--8-8-----33-3--3-------------------------------------|

e|---------------------------------------------------------------------------|
B|-----8----8------------------------------------7----7----------------------|
G|-----9----9--------9-----9-------4----4--------7----7----------------------|
D|-----9--9-9-------10-----10------5----5--------7--7-7----------------------|
A|--77-7--7-7-------10--10-10------5--5-5-----55-5--5------------------------|
E|----------------88-8--8-8-----33-3--3--------------------------------------|

e|---------------------------------------------------------------------------|
B|-----8----8------------------------------------7----7----------------------|
G|-----9----9--------9-----9-------4----4--------7----7----------------------|
D|-----9--9-9-------10-----10------5----5--------7--7-7----------------------|
A|--77-7--7-7-------10--10-10------5--5-5-----55-5--5------------------------|
E|----------------88-8--8-8-----33-3--3--------------------------------------|


I cannot for the life of me figure out the finger picking part in the bridge here sorry
.
.
.

e|---------------------------------------------------------------------------|
B|-----8----8------------------------------------7----7----------------------|
G|-----9----9--------9-----9-------4----4--------7----7----------------------|
D|-----9--9-9-------10-----10------5----5--------7--7-7----------------------|
A|--77-7--7-7-------10--10-10------5--5-5-----55-5--5------------------------|
E|----------------88-8--8-8-----33-3--3--------------------------------------|

e|---------------------------------------------------------------------------|
B|---------------------------------------------------------------------------|
G|---------------------------------------------------------------------------|
D|-----9-------------------------777-555-4h5p4-------------------------------|
A|--777-7------10-------5----555---------------------------------------------|
E|----------888--8---333-3---------------------------------------------------|                    
tap               tap           tap


************************************

| /   slide up
| \   slide down
| h   hammer-on
| p   pull-off
| ~   vibrato
| +   harmonic
| x   Mute note
| b   Bend
| pb  Pre-bend
| br  Bend release
| pbr Pre-bend release
| brb Bend release bend

************************************
Tap to rate this tab
 
# A B C D E F G H I J K L M N O P Q R S T U V W X Y Z