Slightly Stoopid - Train 2 tab

I submitted one earlier or this song and I couldn't figure out that first chord, I was 
it is an E, which makes sense, so here it is.. exactly the same but with the first chord changed.

Tuning:Standard

Great, chill song by an amazing band.
Easiest way to break this song down is like this...and this is my first ever tab, 
welcome.

There are basically 3 parts to this song: Intro Part 1, Intro Part 2, Verse.

Song is played in this order:

Intro Part 1
Intro Part 2
Verse
Intro Part 2
Intro Part 1
Intro Part 2
Verse
Intro Part 2
Intro Part 1
Intro Part 2

Intro Part 1:  E, B

e|-------------12--11-9------------------11-9--------------------------------|
B|-----12------12-------12-10-9-------7-------12-11-9------------------------|
G|-----13-----------------------11----8---------------11---------------------|
D|-----14--------------------------9--9--------------------------------------|
A|--14-----------------------------------------------------------------------|
E|---------------------------------------------------------------------------|

(repeat above but add this last note)
e|-------------12--11-9------------------11-9--------------------------------|
B|-----12------12-------12-10-9-------7-------12-11-9------------------------|
G|-----13-----------------------11----8---------------11-9-------------------|
D|-----14--------------------------9--9--------------------------------------|
A|--14-----------------------------------------------------------------------|
E|---------------------------------------------------------------------------|

Intro Part 2: C#, E, B
(strum bass strings first then higher)
e|--9----9-12--12------7-----------------------------------------------------|
B|--9----9-12--12------7-----------------------------------------------------|
G|--10--10-13--13------8-----------------------------------------------------|
D|--11--11/14--14---9--9-----------------------------------------------------|
A|--11--11/14--14---9--9-----------------------------------------------------|
E|--9----9/12--12---7--7-----------------------------------------------------|

(basically repeat, add the last few notes to make it sound right)
e|--9----9-12--12------7-----------------------------------------------------|
B|--9----9-12--12------7---7-------------------------------------------------|
G|--10--10-13--13------8-----8-----------------------------------------------|
D|--11--11/14--14---9--9-------9---------------------------------------------|
A|--11--11/14--14---9--9-----------------------------------------------------|
E|--9----9/12--12---7--7-----------------------------------------------------|

Verse: E, B (guitar doesn't play a lot during vocals, just lightly strum and pick away)

e|---------------------------------------------------------------------------|
B|-9--7--9--7----------------------------------------------------------------|
G|-9--8--9--8----------------------------------------------------------------|
D|-9--9--9--9----------------------------------------------------------------|
A|-7--9--7--9----------------------------------------------------------------|
E|----7-----7----------------------------------------------------------------|

That's it.  Not too hard.
Short and Sweet.
Tap to rate this tab
 
# A B C D E F G H I J K L M N O P Q R S T U V W X Y Z