Slightly Stoopid - Reward For Me tab

----------------------------------------------------------------------------
			     "Reward for Me" - Slightly Stoopid
----------------------------------------------------------------------------

Tabbed by: SlightlySully

I haven't found any REALLY good tabs on this song, but 
I love the guitar in it, so I decided to stop being lazy 
and just figure it out on my own. I'm almost positive this 
tab is 100% correct.  Just repeat what I've tabbed out here 
for the whole song and you've got it. Enjoy

Tuning: Standard

GUITAR 1:

e|----8---8--8--8-----10----7---7--7-7---7--7-7-7----|
B|----8---8--8--8-----10----8---8--8-8---8--8-8-8----|
G|----9---9--9--9-----11----9---9--9-9---9--9-9-9----|repeat x2
D|----10--10-10-10----12----9---9--9-9---9--9-9-9----|
A|----10--10-10-10----12----7---7--7-7---7--7-7-7----|
E|----8---8--8--8-----10-----------------------------|

e|----8----8---8--8----8---8--8--8------8/10---10--10-10---10--10-10-10----|
B|----8----8---8--8----8---8--8--8------8/10---10--10-10---10--10-10-10----|
G|----9----9---9--9----9---9--9--9------9/11---11--11-11---11--11-11-11----|
D|----10---10--10-10---10--10-10-10-----10/12--12--12-12---12--12-12-12----|
A|----10---10--10-10---10--10-10-10-----10/12--12--12-12---12--12-12-12----|
E|----8----8---8--8----8---8--8--8------8/10---10--10-10---10--10-10-10----|


e|----8---8--8--8-----10----7---7--7-7---7--7-7-7----|
B|----8---8--8--8-----10----8---8--8-8---8--8-8-8----|
G|----9---9--9--9-----11----9---9--9-9---9--9-9-9----|
D|----10--10-10-10----12----9---9--9-9---9--9-9-9----|
A|----10--10-10-10----12----7---7--7-7---7--7-7-7----|
E|----8---8--8--8-----10-----------------------------|


GUITAR 2:

e|----0---0-0-0----2----3---3--3-3---3--3-3-3----|
B|----1---1-1-1----3----3---3--3-3---3--3-3-3----|
G|----0---0-0-0----2----0---0--0-0---0--0-0-0----| repeat x2
D|----2---2-2-2----0----0---0--0-0---0--0-0-0----|
A|----3---3-3-3---------2---2--2-2---2--2-2-2----|
E|----------------------3---3--3-3---3--3-3-3----|

e|----0---0--0-0---0--0-0-0----2---2-2-3-2-0-2---|
B|----1---1--1-1---1--1-1-1----3---3-3-3-3-3-3---|
G|----0---0--0-0---0--0-0-0----2---2-2-2-2-2-2---|
D|----2---2--2-2---2--2-2-2----0---0-0-0-0-0-0---|
A|----3---3--3-3---3--3-3-3----------------------|
E|-----------------------------------------------|

e|----0---0-0-0----2----3---3--3-3---3--3-3-3----|
B|----1---1-1-1----3----3---3--3-3---3--3-3-3----|
G|----0---0-0-0----2----0---0--0-0---0--0-0-0----| 
D|----2---2-2-2----0----0---0--0-0---0--0-0-0----|
A|----3---3-3-3---------2---2--2-2---2--2-2-2----|
E|----------------------3---3--3-3---3--3-3-3----|

e|------0---3p2-0-0-3----------------------0---3p2-0-0-3-----------|
B|-----1-1-3----3-3-3---3/5/3-------------1-1-3----2-2-3-----------|
G|----0----2----2-2-0--------2/4/2---0---0----2----3-3-0-----------|
D|---2-----0--------0-------------0h2---2-----0--------0-----------|
A|--3---------------2------------------3---------------2-----------|
E|------------------3----------------------------------3-----------|



************************************

| /   slide up
| \   slide down
| h   hammer-on
| p   pull-off
| ~   vibrato
| +   harmonic
| x   Mute note
| b   Bend
| pb  Pre-bend
| br  Bend release
| pbr Pre-bend release
| brb Bend release bend

************************************
Tap to rate this tab
 
# A B C D E F G H I J K L M N O P Q R S T U V W X Y Z