Song name
# A B C D E F G H I J K L M N O P Q R S T U V W X Y Z

Slightly Stoopid - Somebody tab

Artist: Slightly Stoopid
Song: Somebody

Okay, I used the other tab on here to make this, but this is a lot more accurate 
especially for the other part.

main riff
       
|-------4--x-x--------2---2-2/4--4-x-x-----4--|
|-------6--x-x--------2---2-2/4--4-x-x-----4--|
|-------6--x-x--------3---3-3/5--5-x-x-----5--|
|-------6--x-x--------4---4-4/6--6-x-x-----6--|
|---4---4--x-x--------4---4-4/6--6-x-x-----6--|
|----------x-x-2---2--2---2-2/4--4-x-x--4--4--|

other part 
   
|---4-3-2--2----2x---------------------------|
|---4-3-2--2----2x-------2/5-----------------|
|---5-4-3--3----3x-----------4-6-4-----------|
|---6-5-4--4----4x-----------------6-5-4-----|
|---6-5-4--4----4x-----------------------4---|
|---4-3-2--2----2x---------------------------|
Tap to rate this tab
 
# A B C D E F G H I J K L M N O P Q R S T U V W X Y Z