Song name
# A B C D E F G H I J K L M N O P Q R S T U V W X Y Z

Slightly Stoopid - This Joint tab

Tabbed by:Vicwilla
Tuning:Standard
My first tab, i think it's pretty accurate. I dont take credit for the verse/chorus portion.  

Intro/Verse/Chorus
e|-----------4-4---------------------------0-|
B|----------4--4---------------------------5-|
G|---------4---4---------------------------6-|
D|--------6----6---------4h6p4-------------6-|
A|-------------------4/6------h6-------------|
E|-------------------------------------------|

Solo
e|-------------------------------------7p5--------------------------------|
B|-5/7-------------------5/7--------------7-7p5---------------------------|
G|-6/8-88888\6----4h6~---6/8-88888\6~----------6-6p4-----4~----4h6p4------|
D|-------------6~-----------------------------------6-4h6---4h6------4h6p4|
A|------------------------------------------------------------------------|
E|------------------------------------------------------------------------|

e|-------------------------|
B|-------------------------|
G|---4h6p4h6p4h6p4h6-------|
D|~~-----------------------|
A|-------------------------|
E|-------------------------|


Outro
e|--9-xx7xx6----------------6/9-xx7xx6--6\4/6\4/6~~---|
B|--11xx9xx7---5/7-5/8\7~~--7/11xx9xx7--7\5/7\5/7~~---|
G|-------------6/8-6/9\8~~----------------------------|
D|----------------------------------------------------|
A|----------------------------------------------------|
E|----------------------------------------------------|

e|-------------------6\4/6\4/6~~----|
B|---5/7-5/8\7~~-----7\5/7\5/7~~----|  
G|---6/8-6/9\8~~--------------------|  Fade out...
D|----------------------------------|
A|----------------------------------|
E|----------------------------------|

************************************

| /   slide up
| \   slide down
| h   hammer-on
| p   pull-off
| ~   vibrato
| x   Mute note
| b   Bend

************************************
Tap to rate this tab
 
# A B C D E F G H I J K L M N O P Q R S T U V W X Y Z