Song name
# A B C D E F G H I J K L M N O P Q R S T U V W X Y Z

Slightly Stoopid - Basher tab

-----------------------------------------------------------------------------
                             Basher - Slightly Stoopid
-----------------------------------------------------------------------------
Tabbed by: StillSublime/Kane Hoostal
Email:StillSublime@live.com

Tuning: Standard EADGBe


Intro, palm muted. It's also the bass line for the entire song, might vary a
bit here and there, but it's essentially the bass line.
e|--------------------------------------------------------------------------|
B|--------------------------------------------------------------------------|
G|--------------------------------------------------------------------------|
D|-----------------------------------4--------------------------------------|
A|---------5-7---77-7-5---5-7---77-7---7-5---5---55-5-7-5---5---55-5-----5-7|
E|--55-5h7--------------7------------------7--------------7----------5h7----|
cont...
e|---------------------------------------------------------------|
B|---------------------------------------------------------------|
G|---------------------------------------------------------------|
D|----------------------4----------------------------------------|
A|--77-7-5---5-7---77-7---7-5---5---55-5-7-5---5---55-5-----5-7--|
E|---------7------------------7--------------7----------5h7------|


This follows the intro, played twice. I'm not exactly sure how many hammer-on/
pull-offs there are due to this echoeing effect, but whatever..
e|--17p15-17p15-----------------17p15-17p15-17------------------------------|
B|--------------17p15-17p15--------------------15h17p15---------------------|
G|------------------------------------------------------14h16p14-12h14p12---|
D|------------------------------------------------------------------------14|
A|--------------------------------------------------------------------------|
E|--------------------------------------------------------------------------|
cont...
e|----------------------------|
B|----------------------------|
G|-12-12h14p12----------------|
D|-------------12---------12--|
A|------------------12/14-----|
E|----------------------------|


Then, this is played, four times. The bit I've sectioned off follows the first
three times, but after the fourth time, it isn't played...
e|---------------------------------------------------|----------------------|
B|---------------------------------------------------|14--14--14-14-14--16--|
G|--16-16-19-16h19p16-14-14-14\12-14-14/16-14\12/14--|----------------------|
D|---------------------------------------------------|----------------------|
A|---------------------------------------------------|----------------------|
E|---------------------------------------------------|----------------------|


Then this, played once...
e|--------------------------------------------------------------------------|
B|--15-15-15-17---------------------------17---------------------17-17-15---|
G|--------------16-14h16-14h16---16-16-16----16-14h16-14h16---16---------16-|
D|--------------------------------------------------------------------------|
A|--------------------------------------------------------------------------|
E|--------------------------------------------------------------------------|
cont...
e|--------------------------------------------|
B|-------------------------15-----------------|
G|--14h16-14h16---16-16-16----16-14h16-14h16--|
D|--------------------------------------------|
A|--------------------------------------------|
E|--------------------------------------------|


And then this, played once...
e|--------------------------------------------------------------------------|
B|-----------17---------------------------17---------------------17-17-15---|
G|--16-16-16----16-14h16-14h16---16-16-16----16-14h16-14h16---16---------16-|
D|--------------------------------------------------------------------------|
A|--------------------------------------------------------------------------|
E|--------------------------------------------------------------------------|
cont...
e|--------------------------------------------|
B|-------------------------15-----------------|
G|--14h16-14h16---16-16-16----16-14h16-14h16--|
D|--------------------------------------------|
A|--------------------------------------------|
E|--------------------------------------------|


And then this, played twice, with the sectioned-off part played after the 
first time.
e|--17p15-17p15-----------------17p15-17p15-17------------------------------|
B|--------------17p15-17p15--------------------15h17p15---------------------|
G|------------------------------------------------------14h16p14-12h14p12---|
D|------------------------------------------------------------------------14|
A|--------------------------------------------------------------------------|
E|--------------------------------------------------------------------------|
cont...
e|----------------------------|---------------|
B|----------------------------|---------------|
G|-12-12h14p12----------------|---------------|
D|-------------12---------12--|--14p12----12--|
A|------------------12/14-----|--------14-----|
E|----------------------------|---------------|


And then finally this...
e|---------------------------------------------------|----------------------|
B|---------------------------------------------------|14--14--14-14-14--16--|
G|--16-16-19-16h19p16-14-14-14\12-14-14/16-14\12/14--|----------------------|
D|---------------------------------------------------|----------------------|
A|---------------------------------------------------|----------------------|
E|---------------------------------------------------|----------------------|




This took a long-ass time, I hope you enjoy it. Excellent song by Slightly 

Stoopid, definitely one of my favourites.
************************************

| /   slide up
| \   slide down
| h   hammer-on
| p   pull-off
| ~   vibrato
| +   harmonic
| x   Mute note
| b   Bend
| pb  Pre-bend
| br  Bend release
| pbr Pre-bend release
| brb Bend release bend

************************************
Tap to rate this tab
 
# A B C D E F G H I J K L M N O P Q R S T U V W X Y Z