Song name
# A B C D E F G H I J K L M N O P Q R S T U V W X Y Z

Slightly Stoopid - Baby I Like It tab

-----------------------------------------------------------------------------
                             Baby I Like It - Slightly Stoopid
-----------------------------------------------------------------------------
Tabbed by: The Dalai Lama

Tuning: Standard

This is pretty close, better than what else I have seen, which is nothing!!!  
So hopefully this will help you, at least a little bit.  I'm not going to 
bother with writing all the strumming patterns and what not.  Just listen 
closely to the song and you will get it.  Enjoy.


Verse/Chorus

e|----5-/-7-7----x--|     |--3-3---2----|  Now he does this on the fourth
B|----5-/-7-7----7--|     |--3-3---2----|  time in the beginning but not
G|----6-/-8-8----x--| x3  |--4-4---3----|  necessarily every time in the rest
D|----7-/-9-9----6--|     |--5-5---4----|  of the song.  Just listen closely
A|---------------7--|     |--5-5---4----|  for this change.  Easiest if you  
E|------------------|     |--3-3---2----|  follow the bass. 
      

Solo
                                     
e|------7------------------------7-------------------7----------------------|
B|--9b--7--------------------9b--7---------------9b--7----------------------|
G|--9b-----9~-7h9p7----------9b-----9~~---7h9p7--9b-----9~-7h9p7------------|
D|---------9~-------9-7-8-9---------9~~-----------------9~-------9-7-8-9----|
A|--------------------------------------------------------------------------|
E|--------------------------------------------------------------------------|

e|------7-----------------|
B|--9b--7-----------------|
G|--9b-----9~~--7h9p7-----|
D|---------9~~--------9\--|
A|------------------------|
E|------------------------|

This part is played quietly in the background at 2:06
e|--12-10-9-----------------------------------------------------------------|
B|----------12-10-9-10-9----------------------------------------------------|
G|-----------------------11-11-10-9-----------------------------------------|
D|----------------------------------12\-------------------------------------|
A|--------------------------------------------------------------------------|
E|--------------------------------------------------------------------------|


At 3:50
e|----------------------------|     |--------------------------------|
B|----------------------------|     |------------9br-----------------|
G|-------7h9-------7h9----7h9-| x3  |-------7h9--9br----9p7----------|
D|--7h9-------7h9------7h9----|     |--7h9------------------9p7--9\--|
A|----------------------------|     |--------------------------------|
E|----------------------------|     |--------------------------------|

************************************

| /   slide up
| \   slide down
| h   hammer-on
| p   pull-off
| ~   vibrato
| x   Mute note
| b   Bend
| br  Bend & release
************************************
Tap to rate this tab
# A B C D E F G H I J K L M N O P Q R S T U V W X Y Z