Song name
# A B C D E F G H I J K L M N O P Q R S T U V W X Y Z

Slightly Stoopid - Open Road tab

Band: Slightly Stoopid
Song: Open Road
People say it is Tuned a half step down, but Idisagree( and why would you want to do 
that to your guitar)

This version doesnt include the solo, but the solo tab from the list is perfect and I
didnt want to copy that persons work, so refer to that tab to learn the solo.

This took me a very long time to perfect on an iPad so please comment and rate.


Guitar 1 played in Both verse and Chorus
e|--------0---0-0----------3/5/3---2---22---222--3-2-0-2----------------|
B|--------1---1-1----------3/5/3---3---33---333--3-3-3-3----------------|
G|--------0---0-0----------0-------2---22---222--2-2--------------------|
D|--2-----2---2-2-----0------------0---00---000--0-0--------------------|
A|--0h3---3---3-3-----2-------------------------------------------------|
E|--------------------3-------------------------------------------------|

e|------0----0-0---------3/5/3---2---22--222--3-2-5-2--222----------------|
B|------1----1-1---------3/5/3---3---33--333--3-3-3-3--333----------------|
G|------0----0-0---------0-------2---22--222--2-2------222----------------|
D|--2---2----2-2-----0-----------0---00--000--0-0------000----------------|
A|--0h3-3----3-3-----2----------------------------------------------------|
E|-------------------3----------------------------------------------------|

e|--------0---0-0----------3/5/3---2---22---222--3-2-0-2----------------|
B|--------1---1-1----------3/5/3---3---33---333--3-3-3-3----------------|
G|--------0---0-0----------0-------2---22---222--2-2--------------------|
D|--2-----2---2-2-----0------------0---00---000--0-0--------------------|
A|--0h3---3---3-3-----2-------------------------------------------------|
E|--------------------3-------------------------------------------------|

e|------0----0-0---------3/5/3---2---22--222--2-2-2-2--222----------------|
B|------1----1-1---------3/5/3---3---33--333--3-3-3-3--333----------------|
G|------0----0-0---------0-------2---22--222--2-2------222----------------|
D|--2---2----2-2-----0-----------0---00--000--0-0------000----------------|
A|--0h3-3----3-3-----2----------------------------------------------------|
E|-------------------3----------------------------------------------------|

{repeat throught the entire song}

Guitar 2

e|-----8---8--8-8------7--77--------10---10--10-10----12p10--10-10--10-10-10---12/14--12p10--|
B|-----8---8--8-8------8--88--------10---10--10-10--------------10-10--10-10-10--------------|
G|-----9---9--9-9------9--99--------11---11--11-11--------------11-11--11-11-11--------------|
D|-----10--101010-------------------12---12--12-12--------------12-12--12-12-12--------------|
A|-------------------------------------------------------------------------------------------|
E|-------------------------------------------------------------------------------------------|

e|-----8---8--8-8------7--77--------10---10--10-10----10h12p10---------------------------------|
B|-----8---8--8-8------8--88--------10---10--10-10-----------------12p10-----------------------|
G|-----9---9--9-9------9--99--------11---11--11-11-------------------------11p9----------------|
D|-----10--101010-------------------12---12--12-12--------------------------------12-12--9h12--|
A|---------------------------------------------------------------------------------------------|
E|---------------------------------------------------------------------------------------------|

e|----------------2-3/14-14-14-14-14-----------------|
B|----------------3-3/15-15-15-15-15-----------------|
G|-------0--------2-2/14-14-14-14-14-----------------|
D|--0h2---------0------------------------------------|
A|-3---------0h2-------------------------------------|
E|----------3----------------------------------------|

e|------------------2-2-2-2-2-2------|
B|------------------3-3-3-3-3-3------|
G|-----0------------2-2-2-2-2-2------|
D|--0h2---------0--------------------|
A|-3---------0h2---------------------|
E|----------3------------------------|

To learn the SOLO check out the solo tab from the Open Road list.
Thanks  for checking it out.
Tap to rate this tab
# A B C D E F G H I J K L M N O P Q R S T U V W X Y Z