Song name
# A B C D E F G H I J K L M N O P Q R S T U V W X Y Z

Slightly Stoopid - Mona June tab

Slightly Stoopid
Mona June (With Angel)
Top Of The World


**Tab is still a work in progress/ All is done by ear so send me corrections or
missing parts if you have them



main part
|------------------------------------------|
|---9--------------------------------------|
|---9---8----------------------------------|
|---9-----9-----------------------8-9------|
|---7---------------------------9----------|
|----------------------------7-------------|


 other part
|-----------7-----------------------------------------|
|---9---------7---------------------------------------|
|---9--8---------------------------888/9--------------|
|---9----9-----------------8-9-----999/9--------------|
|---7--------------------9----------------------------|
|----------------------7------------------------------|



fill before 1st chorus
|------------------------------------|
|-/14--12----------------------------|
|------------11h12---11--------------|
|------------------------------------|
|------------------------------------|
|------------------------------------|

|-------------------------------14-14---------------14-16-16-14--------------------|
|-----14-16-16-14-----------16------------------16-------------------16--14--12----|
|--13---------------------13-------------------------------------------------------|
|----------------------------------------------------------------------------------|
|----------------------------------------------------------------------------------|
|----------------------------------------------------------------------------------|

...when everyday is like a...
|---------------------------------------------------|
|-77-77/9----7---7----------------------------------|
|-88-88/8----8-8-8-8----8---------8-----------------|
|--------------9---9----9---------9-----------------|
|-----------------------9-----7h9-9-----------------|
|---------------------------------------------------|


first solo
|--------------------------------------------------------/14-----------------------|
|--14~~------------12----------12-14~-12-12-12-14~~--------12----------------------|
|------------11-13-------10-12-----------------------------------------------------|
|-----------------------------------------------------------------13-13--11--9-----|
|----------------------------------------------------------------------------------|
|----------------------------------------------------------------------------------|

|-----------------------------------------------------------------------------------|
|-12-12----------------------------12-12--------14~-12-14-14b--12~~-----------------|
|--------11---13-11-13-13-11-------------11-------------------------11/13/11--------|
|-----------------------------------------------------------------------------------|
|-----------------------------------------------------------------------------------|
|-----------------------------------------------------------------------------------|

|------------------------------------------------|
|-------12-12---14-12----------------------------|
|-11-13------13---------11/8--8889999------------|
|-----------------------13/9--9999999------------|
|------------------------------------------------|
|-----------------------------7777777------------|
Tap to rate this tab
# A B C D E F G H I J K L M N O P Q R S T U V W X Y Z