Guitaretab - guitar tabs
Song name
# A B C D E F G H I J K L M N O P Q R S T U V W X Y Z

Slightly Stoopid - Struggler tab

Struggler - Slightly Stoopid
~~~~~~~~~   ~~~~~~~~~~~~~~~~
album: longest barrel ride
tabbed by: alex schwer
email: schwer039@yahoo.com
tuning: standard


+=====**KEY**======+
| /  slide up      |
| \  slide down    |
| h  hammer-on     |
| p  pull-off      |
| ~  vibrato       |
| x  mute          |
| b  bend          |
|:00 time on track |
+==================+


**INTRO**

  "yes i'm a struggler.."
e-|-6-6---6---6---6---6-------8---8---8---8---|
B-|-6---6---6---6---6---6--/8---8---8---8---8-|
G-|-------------------------------------------| x2
D-|-------------------------------------------|
A-|-------------------------------------------|
E-|-------------------------------------------|

The rhythm guitar then breaks 
into a reggae type feel 
with these chords:           +====**AT 0:25**=====+
                             | throw in this riff |
e-|-6-6-6-6--8-8-8-8---|     | e-|-------------|  | 
B-|-6-6-6-6--8-8-8-8---|     | B-|-------------|  | 
G-|--------------------|     | G-|-10p8-x-8----|  | 
D-|--------------------|     | D-|---------10\-|  |
A-|--------------------|     | A-|-------------|  | 
E-|--------------------|     | E-|-------------|  | 
                             +====================+


At 0:43 there's a variation on the rhythm:
                  
e-|-6-6-6-6-6----------------|
B-|-6---------8-8-8-8--10-10-|
G-|-----------8-8-8-8--10-10-|
D-|--------------------------|
A-|--------------------------|
E-|--------------------------|

0:49 Then back to the original progression:
                              
                            "(1:01) ooh said I, said I love my girl.."
e-|-6-6-6-6-6--6-6-6-6--8-8-8-8--6-6-6-6--8-8-8-8-|
B-|-6----------6-6-6-6--8-8-8-8--6-6-6-6--8-8-8-8-|
G-|-----------------------------------------------|
D-|-----------------------------------------------|
A-|-----------------------------------------------|
E-|-----------------------------------------------|



1:13             "yes i'm a struggler.."
e-|----------------|
B-|----------------|
G-|-8h10------8----|
D-|--------10--10\-|
A-|----------------|
E-|----------------|


**SOLO**

1:24
"..ain't got much, jussst youuuuu.."
e-|------------------------------------------|
B-|------------------------------------------|
G-|-8h10p8h10---8------------------------10~-|
D-|-----------10-10\---------8\--8-10/12-----|
A-|---------------------8h10-----------------|
E-|------------------------------------------|
[ Tab from: http://www.guitaretab.com/s/slightly-stoopid/55097.html ]
e-|------------------------------------------------------------|
B-|------------------------------------------------------------|
G-|-10/12-10-10h12p10--------------------------------------10~-|
D-|------------------12p10p8-8\--------8-8-8/10-10p8-10/12-----|
A-|-------------------------------8/10-------------------------|
E-|------------------------------------------------------------|
                                   
e-|----------------------13h15p13----|
B-|-------11-13p11-13/16---------16\-|
G-|-10/12------------------------15\-|
D-|----------------------------------|
A-|----------------------------------|
E-|----------------------------------|
  1:39
e-|--13b-11-11h13p11-----------------|
B-|-----------------13p11\8----------|
G-|------------------------10/12-10\-|
D-|----------------------------------|
A-|----------------------------------|
E-|----------------------------------|

e-|-13b-11-11h13p11--11h13p11-----11------------13b-11-11h13p11------------------|
B-|----------------13--------13p11--13\---10h12----------------13p11\8-----------|
G-|--------------------------------------------------------------------10/12-10\-|
D-|------------------------------------------------------------------------------|
A-|------------------------------------------------------------------------------|
E-|------------------------------------------------------------------------------|

1:48
e-|--------------------------|
B-|--------------------------|
G-|-8h10p8----8----8h10p8-8\-|
D-|--------10--10\-----------|
A-|--------------------------|
E-|--------------------------|

That's it for the solo. If that just totally sucked or it's hard to understand, then
improvise or figure it out on your own. The solo is in C minor (or D# major) penatonic.
If you don't know the scales feel free to email me, and i'll send it to you.  

The rest of the song is just basically the original rhythm progression with this little
thing after the last verse.

                       2:13 
"..to the irie trail, e-|-6-6-6-6-6-6-6-6----8-8-8-10-10-|  x2
if ya sayy I.."       B-|-6--6-6-6-6-6-6---/8-8-8--------|
                      G-|--------------------------------|
                      D-|--------------------------------|
                      A-|--------------------------------|
                      E-|--------------------------------|

**OUTRO**
w/ synths: 

2:28
e--8----6----8h10-8----8--|
B--8----6----8----8----8--|
G-------------------------|
D-------------------------|
A-------------------------|
E-------------------------|

I think thats pretty much everything. jam on.
Related for Struggler tab