Song name
# A B C D E F G H I J K L M N O P Q R S T U V W X Y Z

Slightly Stoopid - Im So Stoned tab

Tabbed by c.moss

Standard Tuning

This intro uses a chord progression similar to many dave matthews chord progressions

Try to let all notes ring as long as possible

e--------------------------------------------------------------------------------------|
B--------------------------------------------------------------------------------------|
G--7---9-7-6--7-6-4--0--44-6---7--9-7-6--7-9-11--12-11-9--11-9-7--9-7-6-7-6-4--0--44-6-|
D--------------------------------------------------------------------------------------|
A--------------------------------------------------------------------------------------|
E--7---8-7-5--7-5-3--3--33-5---7--8-7-5--7-8-10--12-10-8--10-8-7--8-7-5-7-5-3--3--33-5-|

now finish it up with a...

e------|
B------|
G--7---|
D--0---|
A--x---
E--7---

or you start of with the verse...


   Bm  A
e--2---5----|
B--3---5----|
G--4---6----|
D--4---7----|
A-----------|
E-----------|

That's all I got
listen to the song for the timing

cmoss@bradley.edu
Tap to rate this tab
# A B C D E F G H I J K L M N O P Q R S T U V W X Y Z