Song name
# A B C D E F G H I J K L M N O P Q R S T U V W X Y Z

Slightly Stoopid - Coolie Man tab

----------------------------------------------------------------------------
			     Cally Man – Slightly Stoopid
----------------------------------------------------------------------------

Tabbed by: Tunaman
Email:Pat_H_Finder@yahoo.com

Tuning: Standard 440

This is the First tab I’ve wrote… and it’s fitting I think.  If this song doesn’t put a 
on your face I don’t know what will.  Enjoy!

Guitar 1 (Rhythm – Miles)

Intro & Verse & Chorus
e|------3p0-------0---0--0----0-0-----0----0-0--------0------------|
B|------3p0-------0h1-1--3p1--1-1-----1----1-1--------1------------|
G|------0----0-0--2---2--2----2-2--0--0h2--2-2--------0------------| x3
D|------0----0-0--2---2--2----2-2--0--0h3-------0-0h2--------------|
A|------2----2-2--0---0--0----0--------—--------0-0h3-----3p2p0-2p0|
E|--3-3------------------------------------------------------------|

This at the end of intro and at the end of the Chorus
                                                       r
e|-----3p0------0---0-0---0-0---0---0-0-------------------0-0-----0-0-|
B|-----3p0------0h1-1-3p1-1-1---1---1-1---------1-1-1-1---1-1-----1-1-|
G|-----0----0-0-2---2-2---2-2-0-0h2-2-2---------0-0-0-0h2-2-2-----0-0-|
D|-----0----0-0-2---2-2---2-2-0-0h3-----0-0h2---2-2-2—0h3-----0-2-----|
A|-----2----2-2-0---0-0---0--------—----0-0h3---3-3-3-0-------0-3-----|
E|--3-3---------------------------------------------------------------|

This part is basically just improv right here, just get the timing right and it will 
good.  This part is also at the end of every riff.

e|-----------|
B|-----------|
G|-----------|
D|-----------|
A|-3p2p0—2p0-|
E|-----------|

I’m currently figuring out what Kyle is doing throughout the song… it’s mostly improv 
I WILL find out what he plays note for note.  Until then enjoy Miles’ rhythm part.

Chords:
     G   Am    F   C
e|---3----0----0---0---|
B|---3----1----1---1---|
G|---0----2----2---0---|
D|---0----2----3---2---|
A|---2-------------3---|
E|---3-----------------|

| /  slide up
| \  slide down
| h  hammer-on
| p  pull-off
| ~  vibrato
| +  harmonic
| x  Mute note
============================================================================
Tap to rate this tab
 
# A B C D E F G H I J K L M N O P Q R S T U V W X Y Z