Song name
# A B C D E F G H I J K L M N O P Q R S T U V W X Y Z

Slightly Stoopid - Closer To The Sun tab

Help us improve GuitareTab! Take a short survey!
All of these tabs are wrong, very wrong... This is 100% or close to 100% correct.

-------------------------------------------------------------------------------
			     Slightly Stoopid - Closer to the Sun
-------------------------------------------------------------------------------
Tabbed by: Harrison Olverd
Email:

Part 1

e|---------------------------------------------------------------------------|
B|-----2h3p2--------0------0---------------------------3---------------------|
G|--------------------2-------------------------0---------0------------------|
D|----------------------2-----------------0--------2-------------------------|
A|-0----------0-----------------------0h2----2-------------------------------|
E|--------------------------------3------------------------------------------|

e|------------------------0-------------2h3p2--------0-----------------------|
B|-----------------1---------0-------------------------3---------------------|
G|-----------0---------2---------------------------------2-------------------|
D|------0h2-----2--------------------0----------0----------2-----------------|
A|---3-----------------------------------------------------------------------|
E|---------------------------------------------------------------------------|

Part 2

e|----------------7p5------------5-----------------5p3---------3-------3-----|
B|----------------------5----------5-------------------3---------3-----------|
G|------4/6---------------6-----------------6\4-----------4---------4--------|
D|------5/7-----------------7---------------7\5--------------5------5--------|
A|---------------------------------------------------------------------------|
E|---------------------------------------------------------------------------|

Part 3

e|-----------3p0---------------------------------------------5p2-------------|
B|----3p1----------3p1----------------------------------5p3-------5p3--------|
G|------------------------2p0-------------------------------------------4h2--|
D|------------------------------2p0h2p0h2p0----------------------------------|
A|-3-------------------------------------------/5----------------------------|
E|---------------------------------------------------------------------------|

e|---------------------------------------------------------------------------|
B|---------------------------------------------------------------------------|
G|---------------------------------------------------------------------------|
D|--4p2h4p2------------------------------------------------------------------|
A|------------5--------------------------------------------------------------|
E|---------------------------------------------------------------------------|




| /  slide up
| \  slide down
| h  hammer-on
| p  pull-off
| ~  vibrato
| +  harmonic
| x  Mute note
===============================================================================
Related for Closer To The Sun tab