Song name
# A B C D E F G H I J K L M N O P Q R S T U V W X Y Z

Slightly Stoopid - Babylon Is Fallin tab

heres another great song by a good band

~-vibrato
p-pull off
h- hammer on
/-slide
^-up stroke
b- bend

 1st intro:
E|-----------------1--1-1------3--3-3--|
B|-----1--1-1------3--3-3------3--3-3--|
G|-----2--2-2------2--2-2------4--4-4--|
D|-----2--2-2--0-0---------5-5-5--5-5--|
A|-0-0---------------------------------|
e|-------------------------------------|


 2nd intro:
E|-----------------1--1-1------3--3-3-------------|
B|-----1--1-1------3--3-3------3--3-3-----1--1-1--|
G|-----2--2-2------2--2-2------4--4-4-----2--2-2--|
D|-----2--2-2--0-0---------5-5-5--5-5-----2--2-2--|
A|-0-0---------------------------------0-0--------|
e|------------------------------------------------|


 whole song is played like this:
E|-----------------1--1-1------3--3-3------5--5-5--|
B|-----1--1-1------3--3-3------3--3-3------5--5-5--|
G|-----2--2-2------2--2-2------4--4-4------5--5-5--|
D|-----2--2-2--0-0---------5-5-5--5-5--7-7-7--7-7--|
A|-0-0---------------------------------------------|
e|-------------------------------------------------|

________________________________________________________________________
2nd guitar part:
come in after bongos
 1st part:
E|-------------1----------3---------------------|
B|--1-----------3--3--3----3--3---3--1----------|
G|---2--2--2--------2----------4------2--2---2--|
D|-------2----0--0---0---5--5---5---------2-----|
A|-0--0---0-------------------------0--0---0----|
e|----------------------------------------------|


 2nd part:
E|-------------1h3p1----------3---------------------|
B|--1-----------------3---3----3--3---3--1----------|
G|---2--2--2-----------2-----------4------2--2---2--|
D|-------2----0-----0---0----5--5---5---------2-----|
A|-0--0---0-----------------------------0--0---0----|
e|--------------------------------------------------|


 3rd part:
E|-------------1h3p1----------3--3/5-0-3-------------|
B|--1-----------------3---3----3-3/5-0-3--1----------|
G|---2--2--2-----------2-------------------2--2---2--|
D|-------2----0-----0---0----5-----------------2-----|
A|-0--0---0------------------------------0--0---0----|
e|---------------------------------------------------|

________________________________________________________________
electric guitar:
this lick will come in about twice in the song

 solo:
E|-------------------------8-10-10b-8-10b-10-8--------------------|
B|--------------------8-10---------------------10-8---------------|
G|--5---------4-5-7/9-------------------------------9-7/5---5/2~--|
D|----7p-5-7~---------------------------------------------7-------|
A|----------------------------------------------------------------|
e|----------------------------------------------------------------|

well i hope you enjoy this tab..i hope its completely accurate for you..i recomend that 
listen to the song to get rythem down..if u have n e questions locate me at 
if u have n e requesting songs for me to tab out...thank u very much.
Tap to rate this tab
# A B C D E F G H I J K L M N O P Q R S T U V W X Y Z