Song name
# A B C D E F G H I J K L M N O P Q R S T U V W X Y Z

Slightly Stoopid - Nicos tab

-------------------------------------------------------------------------------
			     Nico's - Slightly Stoopid
-------------------------------------------------------------------------------
Tabbed by:Darian Pazgan-Lorenzo

Tuning:Standard

Approximated Rhythm

Riff One:
e|-4-4-4-4/5--5--5--5-5-5-5|
B|-4-4-4-4/5--5--5--5-5-5-5|
G|-5-5-5-5/6--6--6--6-6-6-6|
D|-6-6-6-6/7--7--7--7-7-7-7|
A|-6-6-6-6/7--7--7--7-7-7-7|
E|-4-4-4-4/5--5--5--5-5-5-5|

Riff Two:
e|-4-4-4-4/5--5--5--5-5-5-5|
B|-4-4-4-4/5--5--5--5-5-5-5|
G|-4-4-4-4/5--5--5--5-5-5-5|
D|-4-4-4-4/5--5--5--5-5-5-5|
A|-4-4-4-4/5--5--5--5-5-5-5|
E|-4-4-4-4/5--5--5--5-5-5-5|
      
Riff Three:
e|-7--7-x--7---7-7-7-7-7-7--7-x--7|
B|-7--7-x--7---7-7-7-7-7-7--7-x--9|
G|-7--7-x--7---7-7-7-7-7-8--8-x--9|
D|-7--7-x--7---7-7-7-7-7-9--9-x--9|
A|-7--7-x--7---7-7-7-7-7-9--9-x--7|
E|-7--7-x--7---7-7-7-7-7-7--7-x--7|

Intro:
Play riff 1 2x,
Riff 2 1x,
Riff 1 1x,
Riff 3 1x,
Then finally riff 1 twice again
Verse:
Riff 1 4x,
Riff 2 2x,
Riff 1 2x,
Riff 3 1x,
And riff 1 2x.

Then play this:

e|-x-x-x-x-x--x|
B|-x-x-x-x-x--x|
G|-x-x-x-x-x--x|
D|-x-x-x-x-x--x|
A|-x-x-x-x-x--x|
E|-x-x-x-x-x--x|

Enjoy! I tried other tabs of this and I thought they were way off.
So I made a few corrections.
----------------------------------------------------------------------------
Key:
| /  slide up
| \  slide down
| h  hammer-on
| p  pull-off
| ~  vibrato
| +  harmonic
| x  Mute note
============================================================================
Tap to rate this tab
# A B C D E F G H I J K L M N O P Q R S T U V W X Y Z