Song name
# A B C D E F G H I J K L M N O P Q R S T U V W X Y Z

Slightly Stoopid - World Goes Round tab

Help us improve GuitareTab! Take a short survey!
Ok I found no tabs on this song
So here it is...from ear

Regular Tuning

-0----------------------3p1--------------3--------1------3p1-------------|
---1---1--3-----3-1-3p1-----3p1------------3---3--1--3p1-----3p1---------|
-----2------4---------------------4---4-----------2---------------4---4--|
--------------5-----------------5---5--------5----3-----------------5----|
-------------------------------------------------------------------------|
-------------------------------------------------------------------------|


---3------------------3p1-------------3-----------------|
-3---3---3------1-3p1-----3------3------3----3----------|
--------------2--------------4-----4--------------------|
-------5----3------------------5-----------5------------|
--------------------------------------------------------|
--------------------------------------------------------|


tabbed by antone
Related for World Goes Round tab