Guitaretab - guitar tabs
Song name
# A B C D E F G H I J K L M N O P Q R S T U V W X Y Z

Slightly Stoopid - Till It Gets Wet tab

well heres a lil something from slightly stoopids "till it gets wet"

guitar 1: delay
guitar 2: acoustic

p=pull off
h=hammer on
/=slide
b=bend

guitar 1                                       (the bend should be 1/4)
E-----17p15p-12-------------------------------12-14-15-17b------------|
B------------------------13p12---12-13-15-----------------------------|
G-------------------12------------------------------------------------|
D-----------------14--------------------------------------------------|
A---------------------------------------------------------------------|
e---------------------------------------------------------------------|

[ Tab from: http://www.guitaretab.com/s/slightly-stoopid/87667.html ]
E-----17p15p-12-----------------------------12-14-15/17b---|
B----------------------------------12-13-15----------------|
G------------------12b-------12-14-------------------------|
D-------------------------14-------------------------------|
A----------------------------------------------------------|
e----------------------------------------------------------|


guitar 2
[0:05]        *4   (4th time)
|--12-12-10-10-|-12--12-12-|
|--12-12-10-10-|-12--12-12-|
|--12-12-10-10-|-12--12-12-|
|--12-12-10-10-|-12--12-12-|
|--10-10--8--8-|-10--10-10-|
|--------------|-----------|

the acoustic takes most of the song repeating those 2 chords
and at 0:20 the delay guitar plays this

|-------------|
|--10p8---8---|
|-------9-----|
|-------------|
|-------------|
|-------------|


thats about all i got for now, ill try and tab out the rest later...if u have n e 
or comments contact me at point_counterpoint785@yahoo.com

peace,
Related for Till It Gets Wet tab