Song name
# A B C D E F G H I J K L M N O P Q R S T U V W X Y Z

Slightly Stoopid - Nothin Over Me tab

:)

im pretty sure this is right.

(this is the second guitar part)
|---------------------------------------------------------------------------|
|---------------------------------------------------------------------------|
|---------------------------------------------------------------------------|
|---------------------------------------------------------------------------|
|------9---9---5---7---9-----9----------9------9------9-------5-------------|
|------7---7---3---5---7-----7---7777777777777777777777777777733333333------|
                          (really fast picking)

|---------------------------------------------------------------------------|
|---------------------------------------------------------------------------|
|---------------------------------------------------------------------------|
|---------------------------------------------------------------------------|
|-----7-------9------9------9-------5-5-5--7-7-7-7-7-7-7---5---7---9--------|
|-----5555555577777777777777777777773-3-3--5-5-5-5-5-5-5---3---5---7--------|
                       (again really fast picking)

:)
Tap to rate this tab
# A B C D E F G H I J K L M N O P Q R S T U V W X Y Z