Song name
# A B C D E F G H I J K L M N O P Q R S T U V W X Y Z

Slightly Stoopid - Aint Got A Lot Of Money tab

-------------------------------------------------------------------------------
			     SONG NAME - Band Name
-------------------------------------------------------------------------------
Tabbed by: Ad Hill
Email: poorboy22@hotmail.com

Tuning:

Intro

e|---------------------------------------------------------------------------|
B|---------------------------------------------------------------------------|
G|--3----5-------------------------------------------------------------------|
D|--3----5-------------------------------------------------------------------|
A|--2----4-------------------------------------------------------------------|
E|--3----5-------------------------------------------------------------------|

Verse/Chorus

e|---------------------------------------------------------------------------|
B|-------5-------------------------------------------------------------------|
G|--5----5----3--------------------------------------------------------------|
D|--5----4----3--------------------------------------------------------------|
A|--4----5----2--------------------------------------------------------------|
E|--5---------3--------------------------------------------------------------|

Run at the end of the verse/chorus

e|---------------------------------------------------------------------------|
B|---------------------------------------------------------------------------|
G|--3----4----5--------------------------------------------------------------|
D|--3----4----5--------------------------------------------------------------|
A|--2----3----4--------------------------------------------------------------|
E|--3----4----5--------------------------------------------------------------|


This is the correct way of playing the song.  Any questions or feedback please email me.
Tap to rate this tab
# A B C D E F G H I J K L M N O P Q R S T U V W X Y Z