Guitaretab - guitar tabs
Song name
# A B C D E F G H I J K L M N O P Q R S T U V W X Y Z

Slightly Stoopid - Blood Of My Blood Acoustic tab

----------------------------------------------------------------------------
			     Blood Of My Blood - Slightly Stoopid
----------------------------------------------------------------------------
Tabbed by: Delorean66


Tuning: eBGDAE

This is the tab for the acoustic version of Blood of my Blood. The intro isnít the exact 
but still correct and easier. The chorus is quick and sharp so you have to mute it fast 
silent. Itís all in 8th notes.


Intro
[ Tab from: http://www.guitaretab.com/s/slightly-stoopid/94284.html ]
E--------------------------------------------------|
B--------------------------------------------------|
G----------------------7-9----------7/9------------|
D------------55--7----------------------7---5/7----|
A---5-5--7--------------------5-7----------- ---7--|
E--------------------------------------------------|


Chorus

     1   2   3   4      1   2    3   4
e|---7-x-x-x-7-x-x-x-|--8-x-x-x-10-x-x-x-|
B|---8-x-x-x-8-x-x-x-|--8-x-x-x-10-x-x-x-|
G|---7-x-x-x-7-x-x-x-|--9-x-x-x-11-x-x-x-|
D|---9-x-x-x-9-x-x-x-|-10-x-x-x-12-x-x-x-|
A|---7-x-x-x-7-x-x-x-|--x-x-x-x--x-x-x-x-|
E|---x-x-x-x-x-x-x-x-|--x-x-x-x--x-x-x-x-|


e|---7-x-x-x-7-x-x-x-|--7-x-x-x--x--x-x--|
B|---8-x-x-x-8-x-x-x-|--8-x-x-x--7--7-7--|
G|---7-x-x-x-7-x-x-x-|--7-x-x-x--7--7-7--|
D|---9-x-x-x-9-x-x-x-|--9-x-x-x--7--7-7--|
A|---7-x-x-x-7-x-x-x-|--7-x-x-x--5--5-5--|
E|---x-x-x-x-x-x-x-x-|--x-x-x-x--x--x-x--|

| /  slide up
| \  slide down
| h  hammer-on
| p  pull-off
| ~  vibrato
| +  harmonic
| x  Mute note
============================================================================
Related for Blood Of My Blood Acoustic tab