Guitaretab - guitar tabs
Song name
# A B C D E F G H I J K L M N O P Q R S T U V W X Y Z

Slightly Stoopid - Girl You Is So Fine tab

-------------------------------------------------------------------------------
		 GIRL YOU IS SO FINE  Slightly Stoopid
-------------------------------------------------------------------------------
Tabbed by: nonpoint42
Email:

Tuning:standard

   Intro/verse this is what he plays the first time. It varies slightly throughout the 
but stays with the same chords.
e|---------------------------------------------0-----------------------------|
B|----1-----1-----1------1-----------1---------1--------1--------------------|
G|--2--2-0---0---------------------0---0---------0---0-----------------------|
D|---------------3---3-2---2-----2-------2---------2-------------------------|
A|-------------------------------3-------------------------------------------|
E|---------------------------------------------------------------------------|

e|----------------------------------------------/5-3---------------------------|
B|---------------------1----------------3-----------3--------------------------|
G|------0-----0-----2---2---------------0------------2-3-4---------------------|
D|----2-----0-----2-------2--------0------0------------------------------------|
A|--3-----2-----0--------------0h2---------------------------------------------|
E|-----------------------------3-----------------------------------------------|

e|---------1-------/5--3----------1------------3p0------------------------------|
B|-------1--1------------3-------1---13p1------3p1-----------------------------|
G|-----2------2------------------2---0-------------------0h2--------------------|
D|---3---------------------------3---2------------------------0h2---0h2-0h2-----|
A|------------------------------------3------------------------------3----------|
E|------------------------------------------------------------------------------|

  The little break between verses goes like this
e|------8--------8------8------8-------8----8---8---8---------------------------|
B|--10---10-8----8-6---6-5----5---8---8---8---8---------------------------------|
G|-----------------------------------9---9---9---9------------------------------|
D|------------------------------------------------------------------------------|
A|------------------------------------------------------------------------------|
E|------------------------------------------------------------------------------|

e|------------------------------------------------------------------------------|
B|-----------------------------------10-----------------------------------------|
G|--------------------------------10---10---------9-----------------------------|
D|---10----9----7----5------10---------10-----10--------------------------------|
A|---------------------------8-------------------10-----------------------------|
E|------------------------------------------------8-----------------------------|

[ Tab from: http://www.guitaretab.com/s/slightly-stoopid/95993.html ]
There are at least 2 guitars in the second half of the song.
An acoustic guitar plays this riff on the c chord throughout:
e|---------------------------------------------------------------------------|
B|---------------------------------------------------------------------------|
G|---------------------------------------------------------------------------|
D|---2--2--------------------------------------------------------------------|
A|---3--3---------3h5p3------------------------------------------------------|
E|-----------3h5-------------------------------------------------------------|
   While an electric guitar plays this
 e|-----------------------------------------------------------------------------|
B|------------------------------------------------------------------------------|
G|--5----3----------------------------------------------------------------------|
D|------------7---5--3---2h3-2h3-2h3-2------------------------------------------|
A|--------------------------------------------3---------------------------------|
E|------------------------------------------------------------------------------|
   This is the fill played every now and then:
e|-----------------------------------------------------------------------------|
B|---10p8----------------------------------------------------------------------|
G|---------99p7---------------------------------------------------------------|
D|-------------------10--------------------------------------------------------|
A|-----------------------------------------------------------------------------|
E|-----------------------------------------------------------------------------|
  Those parts are played the whole time
   Then there is the solo.
   Play this twice:
e|------------------------------------------------------------------------------|
B|------------------------------------------------------------------------------|
G|---9--------9-9-9-9--9--------------------------------------------------------|
D|------10-----------------10---------------------------------------------------|
A|------------------------------------------------------------------------------|
E|------------------------------------------------------------------------------|
   Second part
e|------------------------------------------------------------------------------|
B|------------------------------------------------------------------------------|
G|-9------9-10-12-10-9h10p9-----9-----------------------------------------------|
D|---10---------------------------12----12-10-----------------------------------|
A|------------------------------------------------------------------------------|
E|------------------------------------------------------------------------------|

e|------------------------------------------------------------------------------|
B|-----------------------------------13-13h15p13---13-13h15p13--13-15b----------|
G|----------------------------12-14----------------14----------------14---------|
D|--10h12p10---10-12/14---------------------------------------------------------|
A|--------------12--------------------------------------------------------------|
E|------------------------------------------------------------------------------|

e|-------------------------------------------------------------------------------|
B|-15b-r-p13-15-13----15-b-rp13------13-----------------------------------------|
G|------------------------------------------14----14-----------------------------|
D|-------------------------------------------------------------------------------|
A|-------------------------------------------------------------------------------|
E|-------------------------------------------------------------------------------|

e|------------------------------------------------------------------------------|
B|------------------------------------------------------------------------------|
G|-12h14p12---12----------------12----------------------------------------------|
D|-------------14---14-12-12h14---14-12h1410h12--10----------------------------|
A|------------------------------------------------------------------------------|
E|------------------------------------------------------------------------------|

e|---------------------------------------------------------------------------|
B|---------------------------------------------------------------------------|
G|---------------------------------------------------------------------------|
D|---------------------------------------------------------------------------|
A|---------------------------------------------------------------------------|
E|---------------------------------------------------------------------------|

| /  slide up
| \  slide down
| h  hammer-on
| p  pull-off
| ~  vibrato
| +  harmonic
| x  Mute note
b  bend
r  release
Related for Girl You Is So Fine tab