Song name
# A B C D E F G H I J K L M N O P Q R S T U V W X Y Z

Slim Harpo - Rainin In My Heart tab

Rainin' in my heart
by Slim Harpo 1961
http://www.bluesharp.ca/legends/sharpo.html

Transcribed by Ryan Breon

Harmonica intro transcribed to guitar:

INTRO:
e --15-----------------------15--------------------------------------------|
B -----15---12/10----13---------15-----------------------------------------|
G ----------------12-----------------------12-12------12)---12-12----12-14-|
D ---------------------------------12-14h---------(14------------14--------|
A -------------------------------------------------------------------------|
E -------------------------------------------------------------------------|

e --------10---------------------------------------|
B -10-12h----12------------------------------------|
G -----------------------12--12--------------------|
D ---------------12-14h----------------------------|
A -------------------------------------------------|
E -------------------------------------------------|


                  C
Rainin' in my heart
                  G
Since we been apart
                  D7
I know I was wrong
                     G
Baby please come home
                C
You got me cryin'
                    G
'Bout to lose my mind
                       D7
Don't let me cry in vain
                          G D G
Try my love just once again


{play harmonica part again here}

Spoken:
Honey, I need your love
Darlin', you know why
If you would come back home
There'll be no need for me to cry

                  C
Rainin' in my heart
                  G
Since we been apart
                 D7
I know I was wrong
                    G D G
Baby please come home
Tap to rate this tab
# A B C D E F G H I J K L M N O P Q R S T U V W X Y Z