Song name
# A B C D E F G H I J K L M N O P Q R S T U V W X Y Z

Slim Twig - Madeline Has A Body tab

Slim Twig - http://slimtwig.bandcamp.com/
There's only one set of tablature for a Slim Twig song, so here's one of my 
favourites I tabbed by ear.

Standard Tuning.

Verse
|------------------------------|
|------------------------------|
|-----------------------7-5----|
|--7------------------7----5-8-| x until the end of verse
|---9-10-9---10-9----8-8-------|
|----------10----10-8----------|

Chorus
|------------------------------------------------------|
|------------------------------------------------------|
|--10-10-10-10-10-10-10-10-12--------------------------|
|--10-10-10-10-10-10-10-10-12-12-12-12-12-12-12-12-12--| 
|--8--8--8--8--8--8--8--8--10-12-12-12-12-12-12-12-12--|
|-----------------------------10-10-10-10-10-10-10-10--|

|------------------------------------|
|------------------------------------|
|------------------------------------|
|--10-10-10-10-10-10-10-10-12-12-12--| x until end of chorus 
|--10-10-10-10-10-10-10-10-12-12-12--|
|--8--8--8--8--8--8--8--8--10-10-10--|

Then carry on until end. 
If you're unsure on the beat http://www.youtube.com/watch?v=d6hmpFuI7OU -here's a 
link to the song. 
Enjoy.
Tap to rate this tab
# A B C D E F G H I J K L M N O P Q R S T U V W X Y Z