Guitaretab - guitar tabs
Song name
# A B C D E F G H I J K L M N O P Q R S T U V W X Y Z

Slime - Legal Illegal Scheiegal tab

Slime - Legal Illegal Scheißegal

there are two guitars sometimes one guitar plays the octave, and live (on Live at 
the post-chorus melodie is played a bit differently

Intro
e:----------------|----------------|
b:----------------|----------------|
g:9-------8-------|9-9-9-----------|
d:9-------9-------|9-9-9-9-7-------| 2x
a:7-------9-------|7-7-7-9-7-------|
e:--------7-------|------7-5-------|

Verse:
e:----------------|----------------|
b:----------------|----------------|
g:9-9-9-9---------|9-9-9-9---------|
d:9-9-9-9-9-9-9-9-|9-9-9-9-9-9-9-9-|3x
a:7-7-7-7-9-9-9-9-|7-7-7-7-9-9-9-9-|
e:--------7-7-7-7-|--------7-7-7-7-|
[ Tab from: http://www.guitaretab.com/s/slime/105700.html ]
e:----------------|----------------|
b:----------------|----------------|
g:9-9-9-9---------|--------9-9-9---|
d:9-9-9-9-9-9-9-9-|7-7-9-9-9-9-9---|
a:7-7-7-7-9-9-9-9-|7-7-9-9-7-7-7---|
e:--------7-7-7-7-|5-5-7-7---------|

Chorus:
e:----------------|----------------|
b:----------------|----------------|
g:9-9-9-9---------|----------------|
d:9-9-9-9-9-9-9-9-|7-7-9-9-11119-9-|4x
a:7-7-7-7-9-9-9-9-|7-7-9-9-11119-9-|
e:--------7-7-7-7-|5-5-7-7-9-9-7-7-|

e:----------------|----------------|
b:----------------|----------------|
g:9-6---6-9-6---6-|9-6---6---------|
d:----9-------9---|----9---9-8-----|2x
a:----------------|------------8---|
e:----------------|----------------|

Verse
Chorus
Chorus (partly just Drumms)
Related for Legal Illegal Scheiegal tab
Advertisement will be closed in 10 seconds