Song name
# A B C D E F G H I J K L M N O P Q R S T U V W X Y Z

Slime - Der Tod Ist Ein Meister Aus Deutschland tab

Slime
Der Tod ist ein Meister aud Deutschland

 -----------------------------|
 -----------------------------|
 -----------------------------|
 -----------------------------|
 -----------------------------|
 --0-0-0-0-0-0-0-0-0-0-~~~~~~-|
     ca.24x 0


 ---------------------------------|
 ---------------------------------|
 ---------------------------------|
 -9-----7-----7-5-4---4-5-4---5-4-|
 -9-----7-----7-5-4---4-5-4---5-4-|
 -7-0-0-5-0-0-5-3-2-0-2-3-2-0-3-2-|


 ----------------------------------------|
 ----------------------------8-8-8-8-8-8-|
 --5-5-5-5-5-5-5-5-5-0-0-0-0-9-9-9-9-9-9-|
 --5-5-5-5-5-5-5-5-5-9-9-9-9-9-9-9-9-9-9-|
 --3-3-3-3-3-3-3-3-3-7-7-7-7-7-7-7-7-7-7-|
 --------------------0-0-0-0-------------|
Tap to rate this tab
# A B C D E F G H I J K L M N O P Q R S T U V W X Y Z