Song name
# A B C D E F G H I J K L M N O P Q R S T U V W X Y Z

Slime - Wenn Der Himmel Brennt tab

Help us improve GuitareTab! Take a short survey!
SLime
Wenn der Himmel brennt


Verse:
    A              G
 ----------------------------|
 ----------------------------|
 ----------------------------|
 --7-7-7--x-7-7--x-5-5-5-5-5-|
 --7-7-7--x-7-7--x-5-5-5-5-5-|
 --5-5-5--x-5-5--x-3-3-3-3-3-|

Ja der Tag wird kommen:
  F       C        A          G
 ---------------------------------------|
 ---------------------------------------|
 ---------------------------------------|
 -3-3-3-310101010-x-x-7-x-x-7-x-5-5-5-5-|
 -3-3-3-310101010-x-x-7-x-x-7-x-5-5-5-5-|
 -1-1-1-1-8-8-8-8-x-x-5-x-x-5-x-3-3-3-3-|

Chorus:
Git. 1				Git. 2
 A     C A   G
 --------------------------------------------------|
 --------------------------------------------------|
 ----------------------------  -2-2-5p2-2-0-00000--|
 -7-7--10p7-7-5-5-5-5------------------------------|
 -7-7--10p7-7-5-5-5-5------------------------------|
 -5-5---8p5-5-3-3-3-3------------------------------|


 ------------------        ------------------|
 ------------------          ----------------|
 ------------------        ------------------|
 -3-3-3-3-5-55555--   3x    -3-3-3333-xxx----|
 -3-3-3-3-5-55555--        -3-3-3333-xxx-----|
 -1-1-1-1-3-33333--        -1-1-1111-xxx-----|
Solo:
  v               v                                   v
 ----------------------------------------------------------------|
 ----------------------------------------------------------------|
 -5---5-9-99-7-55/7---10-1010-9-79/10---14-1414-12-10-9--9b9b--7-|
 ----------------------------------------------------------------|
 ----------------------------------------------------------------|
 ----------------------------------------------------------------|


b ... bend
v ... vibrato
Related for Wenn Der Himmel Brennt tab