Song name
# A B C D E F G H I J K L M N O P Q R S T U V W X Y Z

Slime - Nazis Raus tab

Intro
e-----------------------------|
H-----------------------------|
G-----------------------------|
D---5----555----777----777----|
A---5----555----777----777----|
E---3----333----555----555----|


Strophe
    p.m._____________________________
e-------------------------------------|
H-------------------------------------|
G-------------------------------------|
D---5-3--------5-3---------7-5--------|
A---3-1-555555-3-1-555555--5-3-777777-|
E-------333333-----333333------555555-|
Tap to rate this tab
# A B C D E F G H I J K L M N O P Q R S T U V W X Y Z