Song name
# A B C D E F G H I J K L M N O P Q R S T U V W X Y Z

Slint - Nosferatu Man tab

Artist: Slint
Song: Nosferatu Man
Album: Spiderland (1991)

Intro/Verses

Guitar 1 (clean)

|------------------------------|------------------------------|
|------------------------------|------------------------------|
|------------------------------|------------------------------|
|------------------------------|------------------------------|
|-6--5--5-11-11--9--9--7--7--6-|-6--5--5-11-11--9--9--7--7--6-|
|-0--0--0--0--0--0--0--0--0--0-|-0--0--0--0--0--0--0--0--0--0-|

Guitar 2 (fuzz)

|---22-22-22b23-22b23-22-22-----------------|
|---------------------------20-20-----------|
|---------------------------------19b20b19--|
|-------------------------------------------|
|-------------------------------------------|
|-------------------------------------------|
Tap to rate this tab
 
# A B C D E F G H I J K L M N O P Q R S T U V W X Y Z