Song name
# A B C D E F G H I J K L M N O P Q R S T U V W X Y Z

Slipknot - Prelude 30 tab

Slipknot-Prelude 3.0
Tab by:Syafiq
E-mail:Cody_sw007@hotmail.com

Key
Tuning=Dropped B-(low to high) B,F#,B,E,G#,C#
/=Slide Up Neck
\\=slide down neck
B=Bend
~=Vibrato
X=Pick Scrape

Riff  1 Clean Effect(dunno what it is lol)
|--------------------|
|--------------------|
|--------------------|
|--------------------|  X
|--------------------|
|-10---13--15--12----|

Riff 2A Clean
|------------------------------------------------------------------------|
|-------12-12------12------12------12-----12-----12------12------12------|
|----13-------13------13------13------13-----13-----13------13-----13----|
|-15-------------15------15------15-----15-----15------15------15-----15-|
|------------------------------------------------------------------------|
|------------------------------------------------------------------------|

Riff 2B Clean
|----------------------------------------------------|
|----------------------------------------------------|
|-12-----12----12----12----12----12----12----12------|
|---13-----13----13----13----13----13----13----13----|
|------15----15----15----15----15----15----15----15--|
|----------------------------------------------------|

Riff 3(right before Riff 4)
|----------------------|
|----------------------|
|----------------------|
|--17-17-17-17p15------|
|----------------------|
|----------------------|



Riff 4 Distortion
|-----------------------------|
|-----------------------------|
|-8-10------------------------|
|-8-10--8--8--/10--10---------|
|-6--8--8--8--/10--10---------|
|-------8--8--/10--10---------|

Riff 5 Distortion
|-----------------------------|
|----20-----------------------|
|-17----20-19-17-20-19-17-----|
|-----------------------------|
|-----------------------------|
|-----------------------------|

Riff 5B Distortion
|-------------------------------------------|
|----20-------------------------------------|
|-17----20-19-17-20-19-17-20-19-17-20-19-17-|
|-------------------------------------------|
|-------------------------------------------|
|-------------------------------------------|

Riff 6 Distortion
|---------------------------------|
|---------------------------------|
|--/20B-19B~-17B\\-/20B-19B~-17B\\--|
|---------------------------------|
|---------------------------------|
|---------------------------------|

Riff 7
|-----------------------------------------|
|-----------------------------------------|
|-20-19-17-20-19-17-20-19-17-20-19-17-20~-|
|-----------------------------------------|
|-----------------------------------------|
|-----------------------------------------|

End
|--------|
|--------|
|--------|
|-X\\\\\\\\\\-|
|-X\\\\\\\\\\-|
|-X\\\\\\\\\\-|

I think this is right..........have a nice day
Tap to rate this tab
 
# A B C D E F G H I J K L M N O P Q R S T U V W X Y Z