Guitaretab - guitar tabs
Song name
# A B C D E F G H I J K L M N O P Q R S T U V W X Y Z

Slipknot - Gehenna tab

Slipknot - Gehenna
Tab: Billybusa (me)
Tuning: Drop A

Guitar 1:
C#||------------------------------------|--------------------------|
G#||------------------------------------|--------------------------|
E ||------------------------------------|--------------------------| x2
B ||------------------------------------|--------3-----------2-----|
F#||------------------------------------|-----3-----3-----2-----2--|
B ||--/19--18--18--18S--10--11--11S--3--|--------------2-----------|

||------------------------------------|--------------------------|
||------------------------------------|--------------------------|
||------------------------------------|--------------------------|
||------------------------------------|--------3-----------2-----|
||------------------------------------|-----3-----3-----2-----2--|
||--/19--18--18--18S--10--11--11S--3--|--------------2-----------|
|
|Guitar 2:                                                     x2
|------------------------------------|--------------------------|
|------------------------------------|--------------------------|
|------------------------------------|--------------------------|
|--/19--18--18--18S--10--11--11S--3--|--------3-----------2-----|
|------------------------------------|-----3-----3-----2-----2--|
|--/19--18--18--18S--10--11--11S--3--|--------------2-----------|

Guitar 1 & 2:
|------------------------------------|--------------------------|
|------------------------------------|--------------------------|
|------------------------------------|--------------------------|
|--/19--18--18--18S--10--11--11S--3--|--------3-----------2-----| x4
|--/19--18--18--18S--10--11--11S--3--|-----3-----3-----2-----2--|
|--/19--18--18--18S--10--11--11S--3--|--------------2-----------|

|-------------------|
|-------------------|
|-------------------|
|-------------------| Hold for a long time
|--0~---------------|
|--0~---------------|

Guitar 1 & 2:
|------------------------------------|--------------------------|
|------------------------------------|--------------------------|
|------------------------------------|--------------------------|
|--/19--18--18--18S--10--11--11S--3--|--------3-----------2-----| x4
|--------------------10--11--11S--3--|-----3-----3-----2-----2--|
|--/19--18--18--18S--10--11--11S--3--|--------------2-----------|


Guitar 1:
|-------------------|--------------------|-------------------|
|-------------------|--------------------|-------------------|
|-------------------|--------------------|-------------------|
|-------------------|--------------------|-------------------|
|--0----------------|--9--------8--------|--0----------------|
|--0----------------|--------------------|--0----------------|
|
|Guitar 2:
|-------------------|--------------------|-------------------|
|-------------------|--------------------|-------------------|
|-------------------|--------------------|-------------------|
|-------------------|--------------------|-------------------|
|--0----------------|--0--------0--------|--0----------------|
|--0----------------|--1--------0--------|--0----------------|

|---------------------||
|---------------------||
|---------------------||
|---------------------||
|--9--------12--------||
|---------------------||
|
|--------------------||
|--------------------||
|--------------------||
|--------------------||
|--0--------0--------||
|--0--------1--------||

Guitar 1:
|---------------------------------------------------|--------------------|
|---------------------------------------------------|--------------------|
|--5/--14-14-14-14-14-14-14-14-14-14-14-14-14\------|--------------------|
|---------------------------------------------------|--------------------|
|--3/--12-12-12-12-12-12-12-12-12-12-12-12-12\------|--9--------8--------|
|---------------------------------------------------|--------------------|
|
|Guitar 2:
|---------------------------------------------------|--------------------|
|---------------------------------------------------|--------------------|
|---------------------------------------------------|--------------------|
|-------3--3--3--3--3--3--3--3--3--3--3--3--3\------|--------------------|
|-------3--3--3--3--3--3--3--3--3--3--3--3--3\------|--0--------0--------|
|-------3--3--3--3--3--3--3--3--3--3--3--3--3\------|--1--------0--------|

Guitar 1:
|---------------------------------------------------|--------------------|
|---------------------------------------------------|--------------------|
|--5/--14-14-14-14-14-14-14-14-14-14-14-14-14\------|--------------------|
|---------------------------------------------------|--------------------|
|--3/--12-12-12-12-12-12-12-12-12-12-12-12-12\------|--9--------12-------|
|---------------------------------------------------|--------------------|
|
|Guitar 2:
|---------------------------------------------------|--------------------|
|---------------------------------------------------|--------------------|
|---------------------------------------------------|--------------------|
|-------3--3--3--3--3--3--3--3--3--3--3--3--3\------|--------------------|
|-------3--3--3--3--3--3--3--3--3--3--3--3--3\------|--0--------0--------|
|-------3--3--3--3--3--3--3--3--3--3--3--3--3\------|--0--------1--------|

Guitar 1:
|---------------------------------------------------|--------------------|
|---------------------------------------------------|--------------------|
|--5/--14-14-14-14-14-14-14-14-14-14-14-14-14\------|--------------------|
|---------------------------------------------------|--------------------|
|--3/--12-12-12-12-12-12-12-12-12-12-12-12-12\------|--9--------8--------|
|---------------------------------------------------|--------------------|
|
|Guitar 2:
|---------------------------------------------------|--------------------|
|---------------------------------------------------|--------------------|
|---------------------------------------------------|--------------------|
|-------3--3--3--3--3--3--3--3--3--3--3--3--3\------|--------------------|
|-------3--3--3--3--3--3--3--3--3--3--3--3--3\------|--0--------0--------|
|-------3--3--3--3--3--3--3--3--3--3--3--3--3\------|--1--------0--------|
[ Tab from: http://www.guitaretab.com/s/slipknot/114582.html ]
Guitar 1:
|---------------------------------------------------------------------|
|---------------------------------------------------------------------|
|--5/--16-16-16-16-16-16-16-16-16-16-16-16-16-16-16-16-16-16-16-16-16-|
|---------------------------------------------------------------------|
|--3/--14-14-14-14-14-14-14-14-14-14-14-14-14-14-14-14-14-14-14-14-14-|
|---------------------------------------------------------------------|
|
|Guitar 2:
|---------------------------------------------------------------------|
|---------------------------------------------------------------------|
|---------------------------------------------------------------------|
|-------3--3--3--3--3--3--3--3--3--3--3--3--3--3--3--3--3--3--3--3--3-|
|-------3--3--3--3--3--3--3--3--3--3--3--3--3--3--3--3--3--3--3--3--3-|
|-------3--3--3--3--3--3--3--3--3--3--3--3--3--3--3--3--3--3--3--3--3-|

Guitar 1:
|-----------------------------------------------------------------------|
|-----------------------------------------------------------------------|
|--16-16-16-16-16-16-16-16-16-16-16-16-16-16-16-16-16-16-16-16-16-16-16-|
|-----------------------------------------------------------------------|
|--16-14-14-14-14-14-14-14-14-14-14-14-14-14-14-14-14-14-14-14-14-14-14-|
|-----------------------------------------------------------------------|
|
|Guitar 2:
|----------------------------------------------------------------------|
|----------------------------------------------------------------------|
|----------------------------------------------------------------------|
|--3--3--3--3--3--3--3--3--3--3--3--3--3--3--3--3--3--3--3--3--3--3--3-|
|--3--3--3--3--3--3--3--3--3--3--3--3--3--3--3--3--3--3--3--3--3--3--3-|
|--3--3--3--3--3--3--3--3--3--3--3--3--3--3--3--3--3--3--3--3--3--3--3-|

Pre Chorus:

Guitar 1 & 2:
------------------------|-------------------------|------------------------|
------------------------|-------------------------|------------------------|
------------------------|-------------------------|------------------------|
--5----5----5--5--5--8--|-----8--8--2----2--2--2--|--5--5--5--5--5--5--5--5|
--5----5----5--5--5--8--|-----8--8--2----2--2--2--|--5--5--5--5--5--5--5--5|
--5----5----5--5--5--8--|-----8--8--2----2--2--2--|--5--5--5--5--5--5--5--5|

--------------------------|
--------------------------|
--------------10-10-10-9--|
--8--8--8--8--------------|
--8--8--8--8--8--8--8--7--|
--8--8--8--8--------------|

Chorus:
------------------------------|--------------------------|
------------------------------|--------------------------|
-------14--14--14-------------|--------------------------|
--0----------------10--0--10--|-----10--10--5----3----5--|
--0----12--12--12--10--0--10--|-----10--10--5----3----5--|
--0----------------10--0--10--|-----10--10--5----3----5--|
                                                        x4
------------------------|-------------------------||
------------------------|-------------------------||
------------------------|-------------------------||
------------------------|-------------------------||
--2----2----2--2--2--5--|-----5--5--8----8--8--8--||
--2----2----2--2--2--5--|-----5--5--8----8--8--8--||

Clean part before the solo:
-----------------------6--|--------------------------|
-----------10-----5--6----|--------10--------10------|
--------7-----7-----------|--9--7-----10--9-----9--7-|
--9--11-------------------|--------------------------|
--------------------------|--------------------------|
--------------------------|--------------------------|

--------------------------|
-10--------11--------10---|
-----10--9-----9--7-----9-|
--------------------------|
--------------------------|
--------------------------|

I havenít figured out the solo yet sorry

|-------------------|
|-------------------|
|-------------------|
|-------------------|
|--0~---------------|
|--0~---------------|

Guitar 1 & 2:
-------------------|--------------------------|--------------------------|
-------------------|--------------------------|--------------------------|
-------------------|--------------------------|--------------------------|
-------------------|-----5--5--------------8--|--------------------------|
-------------------|--5--5--5--5--5--5--5--8--|--8--8--8--2--2--2--2--2--|
-------------------|--5--5--5--5--5--5--5--8--|--8--8--8--2--2--2--2--2--|
                      .        Pm-------->       Pm-------------------->

--------------------------|--------------------------|
--------------------------|--------------------------|
--------------------------|--------------10-10-10-9--|
--------------------------|--------------------------|
--5--5--5--5--5--5--5--8--|--8--8--8--8--8--8--8--7--|
--5--5--5--5--5--5--5--8--|--8--8--8--8--------------|
  Pm---------------------------------->

--------------------------|--------------------------|
--------------------------|--------------------------|
--------------------------|--------------------------|
--------------------------|--------------------------|
--5--5--5--5--5--5--5--8--|--8--8--8--2--2--2--2--2--|
--5--5--5--5--5--5--5--8--|--8--8--8--2--2--2--2--2--|
Pm------------------------------------------------->

--------------------------|--------------------------|
--------------------------|--------------------------|
--------------------------|--------------10-10-10-9--|
--------------------------|--------------------------|
--5--5--5--5--5--5--5--8--|--8--8--8--8--8--8--8--7--|
--5--5--5--5--5--5--5--8--|--8--8--8--8--------------|
  Pm---------------------------------->

Chorus:
------------------------------|--------------------------|
------------------------------|--------------------------|
-------14--14--14-------------|--------------------------|
--0----------------10--0--10--|-----10--10--5----3----5--|
--0----12--12--12--10--0--10--|-----10--10--5----3----5--|
--0----------------10--0--10--|-----10--10--5----3----5--|
                                                        x10
------------------------|-------------------------||
------------------------|-------------------------||
------------------------|-------------------------||
------------------------|-------------------------||
--2----2----2--2--2--5--|-----5--5--8----8--8--8--||
--2----2----2--2--2--5--|-----5--5--8----8--8--8--||

|-------------------|
|-------------------|
|-------------------|
|-------------------|
|--0~---------------|
|--0~---------------|

Thatís it, again sorry for not tabbing out the solo and the lead part at the end

if I ever tab the solo I'll just add it to the tab
Related for Gehenna tab