Song name
# A B C D E F G H I J K L M N O P Q R S T U V W X Y Z

Slipknot - Child Of Burning Time tab

Help us improve GuitareTab! Take a short survey!
Beginning of "Child of Burning Time" in Slipknot album "All Hope Is Gone"
When it kicks in to the higher notes (lead guitar not rythm)

C#-------------------------------------------------------|
G#--------------------------------------8-7-8-9-8^--7-8^-|
E--/12---13-/15---13---12--/13 13^~----------------------|
B--------------------------------------------------------|
F#-------------------------------------------------------|
B--------------------------------------------------------|


C#--/10-9---7-8-7~---8-9-8-0-7-8-7-0-6-7-4~-----------------------------|
G#--------8-------------------------------------0-7-8-8-7-6---5-6-6-5-4-|
E-----------------------------------------------------------------------|
B-----------------------------------------------------------------------|
F#----------------------------------------------------------------------|
B-----------------------------------------------------------------------|


C#----------------------------------|
G#-7-6-6-7-5-6-6-4-3-2-0-2-3-2-3-2--|
E-----------------------------------|
B-----------------------------------|
F#----------------------------------|
B-----------------------------------|

rythm throught song
C#---------------------|
G#---------------------|
E----------------------|
B---3-4-5-4-3--4-3-4^--|
F#--3-4-5-4-3--4-3-4^--|
B---3-4-5-4-3--4-3-4^--|


small rythm part in the middle
B----4-x-4-x-4--4/5/4--xxxxxxxxxx--4xx-4xx-4x-4/5/4-5/4-|
F#------------------------------------------------------|
B-------------------------------------------------------|
Related for Child Of Burning Time tab