Song name
# A B C D E F G H I J K L M N O P Q R S T U V W X Y Z

Slipknot - Wherein Lies Continue tab

INTRO:
-----------------------------------------------------|
-----------------------------------------------------|
-----------------------------------------------------|
-----------------------------------------------------|(X4)
------------------------5-6--------------------------|
-0-0-0-0-0-0-0-0-0--0-0-5-6-0-0-0-0-0-0-0-0---0--0-0-|

VERSE 1 LIKE INTRO
CHORUS
---------------------|
---------------------|
---------------------|
-1-1-2-2--1-1-2-2----|(X2)
---------------------|
---------------------|

END THE CHORUS WITH THIS
-------------------------------|
-------------------------------|
-------------------------------|
-------------------------------|
-5-6-5-6-5-6-0~~~~~------------|
-------------------------------|

VERSE 2

---------------------------------------------------|
---------------------------------------------------|
---------------------------------------------------|
-----------------------------------------------5H6-|
---------------------------------------------------|
-0-0-0-0-0-0-0-0--0-0-5-6--0-0-0-0-0-0-0-0--0-0----|
Tap to rate this tab
 
# A B C D E F G H I J K L M N O P Q R S T U V W X Y Z