Song name
# A B C D E F G H I J K L M N O P Q R S T U V W X Y Z

Slipknot - Snap tab

Author/Artist: Slipknot 
Title: Snap 
Album: Unreleased 
Transcribed by: Purity 
Email: Purity777@hotmail.com 
Address: http://committed.to/purity 

Drop D Tuning, Down 1 1/2 Steps. 
B F# B E G# C# 

h - hammer on 
- - palm mute 


Riff 1 
-----------------| 
-----------------| 
-----------------| 
-----------------| 
-0-2-3-0-3-4-0-6-| 
-0-2-3-0-3-4-0-6-| 


Riff 2 
----------------------| 
----------------------| 
----------------------| 
----------------------| 
-0h1-5--4--2--4--5--4-| 
-0h1-5--4--2--4--5--4-| 
                                                                               
                                                                         
Riff 3 
-------------| 
-------------| 
-------------| 
-------------| 
-1-4-1-3-1-0-| 
-1-4-1-3-1-0-| 
 -   -   -                                                                     


Riff 4 
----------------| 
----------------| 
----------------| 
----------------| 
-3-1-2-0--0--0--| 
-3-1-2-0--0--0--| 
                                                                               

Riff 5 
-------------| 
-------------| 
-------------| 
-------------| 
-4-1-0-3--2--| 
-4-1-0-3--2--| 
               
                                                                 
Riff 1 : intro, chorus 
Riff 2 : verse 
Riff 3 : break (Corey's voice starts twisting) 
Riff 4 : (All I want is, what is mine.) 
Riff 5 : (Ain't no ***in' friend of mine.)
Tap to rate this tab
# A B C D E F G H I J K L M N O P Q R S T U V W X Y Z