Song name
# A B C D E F G H I J K L M N O P Q R S T U V W X Y Z

Slipknot - Vendetta tab

Slipknot - Vendetta
Tab: Billybusa (Me)
Tuning: Drop B

TP = Tremolo Picking
PM/"." = Palm Mute

INTRO:
C#||-------------------------|-------------------------|
G#||-------------------------|-------------------------|
E ||*------------------------|-------------------------|
B ||*------------------------|-------------------0-0---|
F#||-------------------------|-------------------0-0---|
B ||---0--3----2--5----3--6--|--0--3----2--5\----0-0---|
       TP------------------------------------>   . .
 
---------------------------||
---------------------------||
--------------------------*||
--------------------------*||
--0--0--0--0--0--0--0--0---||
--0--0--0--0--0--0--0--0---||
  PM-------------------->

|---------------------------|-------------------------|
|---------------------------|-------------------------|
|*--------------------------|-------------------------|
|*--4--7----6--9----7--10\--|--4--7----6--9\----0-0---|
|---------------------------|-------------------0-0---|
|---------------------------|-------------------0-0---|
    TP-------------------------------------->   . .

---------------------------||
---------------------------||
--------------------------*||
--------------------------*||
--0--0--0--0--0--0--0--0---||
--0--0--0--0--0--0--0--0---||
  PM-------------------->

---------------------------------------------------|
---------------------------------------------------|
---------------------------------------------------|
---------------------------------------------------|
--0--0--0--0--0--0--0--0-0-0--0--0--0--0--0--0--0--|
--0--0--0--0--0--0--0--0-0-0--0--0--0--0--0--0--0--|
PM------------------------------------------------>

----------------------------------------------------|
----------------------------------------------------|
----------------------------------------------------|
----------------------------------------------------|
--0--0--0-0-0--0--0--0--0--0--0--0--0--0--0-0-0--0--|
--0--0--0-0-0--0--0--0--0--0--0--0--0--0--0-0-0--0--|
PM------------------------------------------------>s

VERSE 1:
--------------------------------------------------|
--------------------------------------------------|
--------------------------------------------------|
--------------------------------------------------|
--12\--0--0-0-0--1p0--0--0--0-0-0--3/5\3--0--0-0--|
--12\--0--0-0-0--1p0--0--0--0-0-0--3/5\3--0--0-0--|
       .  . . .       .  .  . . .         .  . .

-----------------------------------------------|
-----------------------------------------------|
-------------10\9-9/12-12-12-------------------|
-----------------------------------------------|
--0--1p0-0----8\7-7/10-10-10-0--0--0--0--1p0-0-|
--0--1p0-0-------------------0--0--0--0--1p0-0-|
                             .  .  .  .      . 

---------------------------------------------------|
---------------------------------------------------|
-----------------------------------12\10-10-10\9-9-|
---------------------------------------------------|
--0--0-0-0--3/5\3-0--0-0-0--1p0-0--10\-8--8--8\7-7-|
--0--0-0-0--3/5\3-0--0-0-0--1p0-0------------------|
  .  . . .        .  . . .      .    

---------------------------------------------|
---------------------------------------------|
---------------------------------------------|
---------------------------------------------|
--0--0-0-0--1p0--0--0--0-0-0--3/5\3--0--0-0--|
--0--0-0-0--1p0--0--0--0-0-0--3/5\3--0--0-0--|
  .  . . .       .  .  . . .         .  . .

-----------------------------------------------|
-----------------------------------------------|
-------------10\9-9/12-12-12-------------------|
-----------------------------------------------|
--0--1p0-0----8\7-7/10-10-10-0--0--0--0--1p0-0-|
--0--1p0-0-------------------0--0--0--0--1p0-0-|
                             .  .  .  .      . 

---------------------------------------------------|
---------------------------------------------------|
-----------------------------------12\10-10-10\9-9-|
---------------------------------------------------|
--0--0-0-0--3/5\3-0--0-0-0--1p0-0--10\-8--8--8\7-7-|
--0--0-0-0--3/5\3-0--0-0-0--1p0-0------------------|
  .  . . .        .  . . .      .    

---------------------------------------------|
---------------------------------------------|
---------------------------------------------|
---------------------------------------------|
--0--0-0-0--1p0--0--0--0-0-0--3/5\3--0--0-0--|
--0--0-0-0--1p0--0--0--0-0-0--3/5\3--0--0-0--|
  .  . . .       .  .  . . .         .  . .

-----------------------------------------------|
-----------------------------------------------|
-------------10\9-9/12-12-12-------------------|
-----------------------------------------------|
--0--1p0-0----8\7-7/10-10-10-0--0--0--0--1p0-0-|
--0--1p0-0-------------------0--0--0--0--1p0-0-|
                             .  .  .  .      . 

------------------------------------------------|
------------------------------------------------|
-----------------------------------12\10-10-10\-|
------------------------------------------------|
--0--0-0-0--3/5\3-0--0-0-0--1p0-0--10\-8--8--8\-|
--0--0-0-0--3/5\3-0--0-0-0--1p0-0---------------|
  .  . . .        .  . . .      .    

PLAY INTRO AGAIN

PLAY VERSE AGAIN

BRIDGE:
|---------------------------------------------------|
|---------------------------------------------------|
|*--------------------------------------------------|
|*--------------------------------------------------|
|---------------------------------------------------|
|---0--3--2--0--2--1--0--3--2--5--3--6--5--4--5--4--|
PM----------------------------------------------->

---------------------------------------------------||
---------------------------------------------------||
--------------------------------------------------*||
--------------------------------------------------*||
---------------------------------------------------||
--3--4--3--2--3--2--1--0--3--2--0--2--1--0--3--0---||
PM--------------------------------------------->

CHORUS:
-----------------------------|---------------------------|
-----------------------------|---------------------------|
-----------------------------|---------------------------|
-----------------------------|---------------------------|
--12\--0--0--6---5---3~---0--|--0-8---7---1~---0--0--6---|
--12\--0--0--6---5---3~---0--|--0-8---7---1~---0--0--6---|
       .  .               .     .              .  .

----------------------------|-------------------------------|
----------------------------|-------------------------------|
----------------------------|-------------------------------|
----------------------------|-------------------------------|
--5---3~---0--0--3---2---1~-|----\--0--0--6----5----3~---0--|
--5---3~---0--0--3---2---1~-|----\--0--0--6----5----3~---0--|
           .  .                     .  .                 .

---------------------------|-----------------------------||
---------------------------|-----------------------------||
---------------------------|-----------------------------||
---------------------------|-----------------------------||
--0-8---7---1~---0--0--6---|--5---3~---0--0--3---2---<1>-||
--0-8---7---1~---0--0--6---|--5---3~---0--0--3---2-------||
  .              .  .                  .  .

PLAY INTRO

PLAY VERSE

PLAY BRIDGE (one time palm muted and one time without palm mute)

CHORUS 2:
------------------------|
------------------------|
------------------------|
------------------------|
--0--0--6---5---3~---0--|
--0--0--6---5---3~---0--|
  .  .               .  

------------------------------|-----------------------------|
------------------------------|-----------------------------|
------------------------------|-----------------------------|
------------------------------|-----------------------------|
--5---3~---0--0--3---2---<1>~-|-----0--0--6----5----3~---0--|
--5---3~---0--0--3---2--------|-----0--0--6----5----3~---0--|
           .  .                     .  .                 .

---------------------------|----------------------------|
---------------------------|----------------------------|
---------------------------|----------------------------|
---------------------------|----------------------------|
--0-8---7---1~---0--0--6---|--5---3~---0--0--3---2---1~-|
--0-8---7---1~---0--0--6---|--5---3~---0--0--3---2---1~-|
    .              .  .                  .  .          
 
||--------------------------|-----------------------------|
||--------------------------|-----------------------------|
||--------------------------|-----------------------------|
||--------------------------|-----------------------------|
||--0--0--6---5---<3>~---0--|--0-8---7---<1>~---0--0--6---|
||--0--0--6---5----------0--|--0-8---7----------0--0--6---|
    .  .                 .     .                .  .    

--------------------------------||
--------------------------------||
--------------------------------||
--------------------------------|| x2
--5---<3>~---0--0--3---2---<>1~-||
--5----------0--0--3---2--------||
             .  .

BREAKDOWN:
------------------------------------|------------------------------------|
------------------------------------|------------------------------------|
------------------------------------|------------------------------------|
------------------------------------|----8-----7-----7\5/8-------------|
--------0--3--2------------0--3--2--|----6--0--5--0--5\3/6-1--0--3--2--|
--/3~---0--3--2----/3--/3--0--3--2--|-------0-----0--------1--0--3--2--|
        .  .  .            .  .  .          .     .        .  .  .  .

----------------------------------||
----------------------------------||
----------------------------------||
-------------------5-----5--------|| play that for quite a while
----------0--3--2--3--0--3--5--4--||
--/3--/3--0--3--2-----0-----5--4--||
          .  .  .     .     .  .

PLAY INTRO

PLAY BRIDGE ONLY ONCE

PLAY CHORUS

PLAY BREAKDOWN
Tap to rate this tab
# A B C D E F G H I J K L M N O P Q R S T U V W X Y Z