Song name
# A B C D E F G H I J K L M N O P Q R S T U V W X Y Z

Slipknot - Vermillion Acoustic tab

This Is the Main riff ill write it 2 ways and you can choose wich you want to play:
Main Riff 1st way
e|---------------------------------------------------|
b|-----0---------------------------------------------|
g|-2-------------------------------------------------|
d|--------3--2---2H3P2------55555555555/3--3333------|
a|-0------------------------33333333333/1--1111------|
E|----------------------0----------------------------|

Main Riff 2nd way

e|-----------------------|
b|-----------------------|
g|---4--6----------------|
d|--------5-4--4H5P4-----|Same Ending as above
a|-----------------------|
E|--------------------0--|

This is the Rythem Guitar in the background
These are just the 2 chords you can figure it out easily
e|------------------------------|
b|------------------------------|
g|------------------------------|
d|--33333/55555-----------------|
a|--11111/33333-----------------|
E|------------------------------|


This is the bridge peice
You can figure out when  he dwitches easily
e|----------------------------------|
b|----------------------------------|
g|----------------------------------|
d|-----55555/777777-----------------|
a|-----33333/555555-----------------|
E|----------------------------------|


Any Comments/corrections accepted just not to harsh is my first tab so have fun with it 
song.
Tap to rate this tab
 
# A B C D E F G H I J K L M N O P Q R S T U V W X Y Z