Song name
# A B C D E F G H I J K L M N O P Q R S T U V W X Y Z

Slipknot - Cakes Taste Nice tab

This part is played very fast. You may need to use your thumb.

INTRO:
|-------5-----5-----5-5---------------|
|------4-----4-----4---4--------------|
|-----3-----3-----3-----3-------------|
|----2-----2-----2-------2-----5*-----| 
|---1-----1-----1---------1-----------|
|--0-----0-----0-----------0----------|

MAIN RIFF:
|----4----------3-------------7-------|
|-------3-3-3----3------------6----4--|
|-----------------3-----------5-------|
|-----------------------------12------|
|-------------4-------6----7--1-------|
|-----------------------------21------|

BREAKDOWN RIFF
|--2----------------------------------|
|--21---------------------------------|
|--3----------------------------------| Played very fast
|--15---------------------------------|
|--12---------------------------------|
|--8---20--1---1---1---5---3---5--7---|

SOLO:
|-1---1---1---1---1---1---1----1---1-|
|----------------------------------1-|
|------------------------------------|
|------------------------------------|
|------------------------------------|
|------------------------------------|

OUTRO:
|13----4---------4------2-------9---1------|
|--4--------5----6------4---3------5-------|
|----3---2-----2-----3---------3-----------|
|-----------2--13---4-----3-------7--------|
|---5----4--------7-6---------1------------|

Have fun maggots.
|-9-----------------------------------|
Tap to rate this tab
 
# A B C D E F G H I J K L M N O P Q R S T U V W X Y Z