Song name
# A B C D E F G H I J K L M N O P Q R S T U V W X Y Z

Slipknot - Hate tab

tuning : B F# B E G# C#

Slipknot - Hate (Crowz demo)

Made by Paincake/Jangel (the same).
This is my email: eguandelcandemore@gmail.com
Enjoy ^^

Intro

C#|-------------------|
G#|-------------------|
E |-------------------|
B |-------------------|
F#|--0-----0----0--0--|
B |--0-----0----0--0--|
    ...     ..  ....

Riff 2

C#|-------------------|
G#|-------------------|
E |-------------------|
B |-------------------|
F#|--0--/3----6-5-6---|
B |--0--/3----6-5-6---| x4

Riff 3, guitar 1 (verse)

C#|----------------------------|
G#|----------------------------|
E |----------------------------|
B |----------------------------|
F#|----------------------------|
B |--2222020----------222202---|

C#|----------------------------|
G#|----------------------------|
E |----------------------------|
B |----------------------------|
F#|----------------------------|
B |--2222020--------22220203(3)| x2

Prechorus

C#|--------------------------------|
G#|--------------------------------|
E |--------------------------------|
B |--------------------------------|
F#|--320-6---32--6--32--6--3-2-(2)-|
B |--320-6---32--6--32--6--3-2-(2)-|
 
C#|--------------------------------|
G#|--------------------------------|
E |--------------------------------|
B |--------------------------------|
F#|--320-6---32--6--32---------(2)-|
B |--320-6---32--6--32---------(2)-|

Chorus
C#|--------------------------------|
G#|--------------------------------|
E |--------------------------------|
B |--------------------------------|
F#|--3-0--7--02-02-3-203-----------|
B |--3-0--7--02-02-3-203-----------| 
C#|--------------------------------|
G#|--------------------------------|
E |--------------------------------|
B |--------------------------------|
F#|--3-0--7--02-02-3-(3)-----------|
B |--3-0--7--02-02-3-(3)-----------| x2


Riff 3, guitar 1 (verse)

C#|----------------------------|
G#|----------------------------|
E |----------------------------|
B |----------------------------|
F#|----------------------------|
B |--2222020----------222202---|

C#|----------------------------|
G#|----------------------------|
E |----------------------------|
B |----------------------------|
F#|----------------------------|
B |--2222020--------22220203(3)| x2

Bridge

C#|--------------------|
G#|--------------------|
E |--------------------|
B |--------------------|
F#|--------------------|
B |--000222333222555222| x8


C#|--------------------|
G#|--------------------|
E |--------------------|
B |--------------------|
F#|--000232-000-252----|
B |--000232-000-252----| x8

Chorus
C#|--------------------------------|
G#|--------------------------------|
E |--------------------------------|
B |--------------------------------|
F#|--3-0--7--02-02-3-203-----------|
B |--3-0--7--02-02-3-203-----------|
 
C#|--------------------------------|
G#|--------------------------------|
E |--------------------------------|
B |--------------------------------|
F#|--3-0--7--02-02-3-(3)-----------|
B |--3-0--7--02-02-3-(3)-----------| x4

Outro
C#|--------------------------------|
G#|--------------------------------|
E |--------------------------------|
B |--------------------------------|
F#|--0-----------------------------|
B |--0-----------------------------|

... = palm mute
h = hammer on
p = pull off
b = bend
~ = vibrato
__ = hold bend
* = pinch harmonic
1 = whole step bend
.5 = half step bend
.25 = quarter step bend
1.5 = whole step and a half bend
2 = two step bend
/ = slide up
\ = slide down
! = feedback
[] = trill (repeatedly hammer on/pull off for a number of times)
pb = pre bend
h/ = pick once
p\ = pick once
h/p\ = pick once
p\h/ = pick once
() = note not picked / bent note back to normal
Tap to rate this tab
 
# A B C D E F G H I J K L M N O P Q R S T U V W X Y Z