Song name
# A B C D E F G H I J K L M N O P Q R S T U V W X Y Z

Slipknot - Vendetta tab

Band:   Slipknot
Song:   Vendetta
Album:  All Hope Is Gone
Tuning: Drop B tuning: (B-F#-B-E-G#-C#)(LOW TO HIGH)
        (Drop D, tuned down 1 and 1/2 steps)

BPM: 127b

Guitar 1: Mick Thompson
Guitar 2: Jim Root

Legend:
slide up:     /
slide down:   \
vibrato:      ~~~
palm mute:    PM
muted string: x
tremelo pick: Tr---
triplets:     __3__


intro
both guitars
E||-drum-counts for--|-------|
B||-6-beats-then for-|-------|
G||-the-last-2-beats-|-------|
D||-you-play-the-----|-------|
A||-slide------------|-/17\--|
E||------------------|-/17\--|

both guitars
    Tr----------------------------------------------   PM-----------------
E||-------------------------------|--------------------------|-------------|
B||-------------------------------|--------------------------|-------------|
G||-------------------------------|--------------------------|-------------|
D||-------------------------------|--------------------------|-------------|
A||-------------------------------|--------------------------|-------------|
E||-0---3-------2---5-------3---6-|-0---3-------2---5/-0-0-0-|-0-0-0-0-0-0-|

then after the part above is played twice guitar 2 plays this twice...

    TR----------------------------------------------   PM-----------------
E||-------------------------------|--------------------------|-------------|
B||-------------------------------|--------------------------|-------------|
G||-------------------------------|--------------------------|-------------|
D||-4---7-------6---9-------7--10-|-4---7-------6---9/-------|-------------|
A||-------------------------------|--------------------------|-------------|
E||-------------------------------|--------------------0-0-0-|-0-0-0-0-0-0-|


pre-verse
both guitars
      _3_ __3__ __3__ __3__   __3__ __3__ __3__ __3__
    PM-----------------------------------------------
E||-------------------------|-------------------------|
B||-------------------------|-------------------------|
G||-------------------------|-------------------------|
D||-------------------------|-------------------------|
A||-------------------------|-------------------------|
E||-0-000-0-0-0-0-0-0-0-0-0-|-0-0-0-0-0-0-0-0-0-0-0-0-|

    __3__ __3__ __3__
    PM---------------
E||--------------------------|
B||--------------------------|
G||--------------------------|
D||--------------------------|
A||--------------------------|
E||-0-0-0-0-0-0-0-0-0--/16\--|


verse
guitar 1
    PM-----   PM-------         PM-----   PM-
E||---------------------------|---------------------------------|
B||---------------------------|---------------------------------|
G||---------------------------|---------------10\9--9--9/12--12-|
D||---------1-----------1/4\3-|---------1------x----x--x------x-|
A||-0-----0-1-0-0-0-0-0-1/4\3-|-0-----0-1-0-0--8\7--7--7/10--10-|
E||-0-0-0-0-1-0-0-0-0-0-1/4\3-|-0-0-0-0-1-0-0-------------------|

guitar 2
    PM-----   PM-------         PM-----   PM-
E||---------------------------|-------------------------------|
B||---------------------------|-------------------------------|
G||---------------------------|----------------7\5--5--5/8--8-|
D||---------1-----------1/4\3-|---------1------x----x--x----x-|
A||-0-----0-1-0-0-0-0-0-1/4\3-|-0-----0-1-0-0--5\3--3--3/6--6-|
E||-0-0-0-0-1-0-0-0-0-0-1/4\3-|-0-0-0-0-1-0-0-----------------|

guitar 1
    PM-----   PM-------         PM-----   PM-
E||---------------------------|----------------------------------|
B||---------------------------|----------------------------------|
G||---------------------------|---------------12\10--10--10\9--9-|
D||---------1-----------1/4\3-|---------1------x------x---x----x-|
A||-0-----0-1-0-0-0-0-0-1/4\3-|-0-----0-1-0-0-10\-8---8---8\7--7-|
E||-0-0-0-0-1-0-0-0-0-0-1/4\3-|-0-0-0-0-1-0-0--------------------|

guitar 2
    PM-----   PM-------         PM-----   PM-
E||---------------------------|-------------------------------|
B||---------------------------|-------------------------------|
G||---------------------------|----------------8\7--7--7\5--5-|
D||---------1-----------1/4\3-|---------1------x----x--x----x-|
A||-0-----0-1-0-0-0-0-0-1/4\3-|-0-----0-1-0-0--6\5--5--5\3--3-|
E||-0-0-0-0-1-0-0-0-0-0-1/4\3-|-0-0-0-0-1-0-0-----------------|


pre-chorus
guitar 1
    PM-----------------------------------------------
E||-------------------------|-------------------------|
B||-------------------------|-------------------------|
G||-------------------------|-------------------------|
D||-------------------------|-7-6-5-6-5-4-5-4-3-4-3-2-|
A||-0-2-3-5-3-5-6-5-3-5-3-0-|-------------------------|
E||-0-2-3-5-3-5-6-5-3-5-3-0-|-------------------------|

guitar 2
    PM-----------------------------------------------
E||-------------------------|-------------------------|
B||-------------------------|-------------------------|
G||-------------------------|-------------------------|
D||-------------------------|-------------------------|
A||-0-2-3-5-3-5-6-5-3-5-3-0-|-8-7-6-7-6-5-6-5-4-5-4-3-|
E||-0-2-3-5-3-5-6-5-3-5-3-0-|-------------------------|


chorus
guitar 1
    PM-       PM    PM-       PM    PM-       PM    PM-
E||---------------|---------------|---------------|-------------|
B||---------------|---------------|---------------|-------------|
G||---------------|---------------|---------------|-------------|
D||---------------|---------------|---------------|-------------|
A||-0-0-6---5-0-3-|-0-0-8---7-0-1-|-0-0-6---5-0-3-|-0-0-3--2--1-|
E||-0-0-6---5-0-3-|-0-0-8---7-0-1-|-0-0-6---5-0-3-|-0-0-3--2--1-|

guitar 2
E||---------------|---------------|---------------|-------------|
B||---------------|---------------|---------------|-------------|
G||-10------------|-12------------|-10------------|-10\---------|
D||--x------------|--x------------|--x------------|--x----------|
A||--8------------|-10------------|--8------------|--8\---------|
E||---------------|---------------|---------------|-------------|


interlude
both guitars
          PM---          PM---     PM    PM         PM-----
E||--------------------|--------------------------|-----------------|
B||--------------------|--------------------------|-----------------|
G||--------------------|--------7-----5-----7\5/8-|-----------------|
D||--------------------|--------7-----5-----7\5/8-|-----------------|
A||--------------------|--------5--0--3--0--5\3/6-|-0---------------|
E||-1/3~~-1-3-1-3~-1/3-|-1-3-1-----0-----0--------|-0-1-3-1-3-1/3~~-|

    PM---     PM
E||-----------------------|
B||-----------------------|
G||--------5-----5--------|
D||--------5-----5--------|
A||--------3--0--3--4--3--|
E||-1-3-1-----0-----4--3--|

when your playing the interlude as the outro you end on
E||-----------|
B||-----------|
G||-----------|
D||-3---(3)\--|
A||-3---(3)\--|
E||-3---(3)\--|


interlude two
guitar 1
                 are you ready for the time of your
       PM-----------------------------------------
E||----------------------|-------------------------|
B||----------------------|-------------------------|
G||----------------------|-------------------------|
D||-9\-------------------|-------------------------|
A||----------------------|-0-2-3-5-3-5-6-5-3-5-3-0-|
E||----0-000-0-000-0-0-0-|-0-2-3-5-3-5-6-5-3-5-3-0-|

guitar 2
       PM-----------------------------------------
E||----------------------|-------------------------|
B||----------------------|-------------------------|
G||----------------------|-------------------------|
D||----------------------|-------------------------|
A||----------------------|-0-2-3-5-3-5-6-5-3-5-3-0-|
E||-5\-0-000-0-000-0-0-0-|-0-2-3-5-3-5-6-5-3-5-3-0-|


final chorus
guitar 1
    PM---       PM    PM---        PM    PM---       PM    PM---
E||-----------------|------------------|-----------------|---------------|
B||-----------------|------------------|-----------------|---------------|
G||--------8--7---5-|--------10--9---3-|--------8--7---5-|-------5--4--3-|
D||--------x--x---x-|---------x--x---x-|--------x--x---x-|-------x--x--x-|
A||-0-0-0--6--5-0-3-|-0-0-0---8--7-0-1-|-0-0-0--6--5-0-3-|-0-0-0-3--2--1-|
E||-0-0-0-------0---|-0-0-0--------0---|-0-0-0-------0---|-0-0-0---------|

guitar 2
    PM---       PM    PM---        PM    PM---       PM    PM---
E||-----------------|------------------|-----------------|---------------|
B||-----------------|------------------|-----------------|---------------|
G||-----------------|------------------|-----------------|---------------|
D||-----------------|------------------|-----------------|---------------|
A||-0-0-0--6--5-0-3-|-0-0-0---8--7-0-1-|-0-0-0--6--5-0-3-|-0-0-0-3--2--1-|
E||-0-0-0--6--5-0-3-|-0-0-0---8--7-0-1-|-0-0-0--6--5-0-3-|-0-0-0-3--2--1-|


song in order:
intro
pre-verse
verse
intro
verse
pre-chorus
chorus
intro
verse
pr-chorus
chorus
interlude
interlude two
chorus
final chorus
interlude (with end on note)
Tap to rate this tab
# A B C D E F G H I J K L M N O P Q R S T U V W X Y Z