Song name
# A B C D E F G H I J K L M N O P Q R S T U V W X Y Z

Slipknot - Sulfur tab

Band:   Slipknot
Song:   Sulfur
Album:  All Hope Is Gone
Tuning: Drop B tuning: (B-F#-B-E-G#-C#)(LOW TO HIGH)
        (Drop D, tuned down 1 and 1/2 steps)

BPM: 97b

Guitar 1: Mick Thompson
Guitar 2: Jim Root

Legend:
slide up:     /
slide down:   \
hammer on:    h
pull off:     p
vibrato:      ~~~
palm mute:    PM
muted string: x
tremelo pick: Tr---

Ive not put the songs order part at the bottom of this tab like i do with
all my other tabs, putting the song in order shouldnt be that hard to do

The solo should be perfect, ive listened to the song played in 18x slow
motion play over and over again, trying to get every note spot on...
so please rate and enjoy :)
comments and correction are greatly appreciated


intro
both guitars
E||------||------------|----------------|------------|-----------------||
B||------||o-----------|----------------|------------|----------------o||
G||------||------------|----------------|------------|-----------------||
D||------||--6----5----|----------------|--6----5----|-----------------||
A||-/15\-||o-8----7----|-3--5--10-9-3-5-|--8----7----|-3--5--10-9-3-5-o||
E||-/15\-||--6----5----|-3--5--10-9-3-5-|--6----5----|-3--5--10-9-3-5--||

double-time feel
both guitars
     Tr----------------------
E||----------------------------||
B||o--------------------------o||
G||----------------------------||
D||----------------------------||
A||o--------------------------o||
E||--6----5----3--5--10-9-3-5--||

verse
both guitars
          PM---------         PM---------         PM---------
E||---------------------------------------|-----------------------|
B||---------------------------------------|-----------------------|
G||---------------------------------------|-----------------------|
D||---------------------------------------|-----------------------|
A||---------------------------------------|-5h6p5---5---------3/5-|
E||-5h6p5-0-0-0-0-0-0-1h3p1p0-0-0-0-0-0-0-|-------6---6-5-3-0-----|

    PM---------         PM---------         PM---------
E||-------------|---------------------------------------|
B||-------------|---------------------------------------|
G||-------------|---------------------------------------|
D||-------------|---------------------------------------|
A||-------------|---------------------------------------|
E||-0-0-0-0-0-0-|-5h6p5-0-0-0-0-0-0-1h3p1p0-0-0-0-0-0-0-|

          PM---------       PM---------
E||-------------------------------------|
B||-------------------------------------|
G||-------------------------------------|
D||-------------------------------------|
A||-5h6p5---5-8-6-5-6-5h6p5---5---------|
E||-------6-----------------6---6-5-3-0-|


guitar 1 plays the intro and double-time feel whilst guitar 2 plays...

wah wah pedal interlude
guitar 2
E||---------------|---------------------------------------------|
B||-6~~~~~~~~~~~~-|-11/13~~~~~~-11/13~~~~~~-13~~~~~-11/13~~~~~~-|
G||---------------|---------------------------------------------|
D||---------------|---------------------------------------------|
A||---------------|---------------------------------------------|
E||---------------|---------------------------------------------|

chorus
both guitars
E||-----------------|-1st-ending---------||-2nd-ending--------|
B||o----------------|-------------------o||-------------------|
G||-----------------|--------------------||-------------------|
D||--7---7--7p5--7--|--7---7p5--8-7-5----||--7---7p5----------|
A||o-5---5--5----5--|--5---5----------6-o||--5---5------------|
E||--0---0--0----0--|--0---0-------------||--0---0----6-5-3-0-|

E||-------------------------------|-------------------------------|
B||-------------------------------|-------------------------------|
G||-------------------------------|-------------------------------|
D||-------------------------------|-------------------------------|
A||-------------------------------|-----------------------6-5-3-0-|
E||-1~~~-3-1-0-1~~~-1-1-1-1-3-1-0-|-3~~~-5-3-0-3~~~-3-5-4---------|

second wah wah interlude
guitar 2
E||------------|----------------------------11-|
B||-4/6~~~~~~~-|-(6)/13~~~~-11/13~~~~-11-13----|
G||------------|-------------------------------|
D||------------|-------------------------------|
A||------------|-------------------------------|
E||------------|-------------------------------|

E||--------------------|-------11--------------|
B||-13~~~~-11/13~~~~~~-|-11/13----13-11/13-----|
G||--------------------|-------------------12--|
D||--------------------|-----------------------|
A||--------------------|-----------------------|
E||--------------------|-----------------------|

interlude
both guitars
    PM---------------           PM---------------------           PM-
E||---------------------------------|---------------------------------|
B||---------------------------------|---------------------------------|
G||---------------------------------|---------------------------------|
D||-------------------8-8-8-7-7-----|-------------------8-8-8-7-7-----|
A||-5-5-5-6-6-6-5-5-5-----------6-6-|-5-5-5-6-6-6-5-5-5-----------6-6-|
E||---------------------------------|---------------------------------|

guitar 1 continues to play the part above whilst guitar 2 plays...
     PM------------------                PM---
E||---------------------------------------------|
B||---------------------------------------------|
G||---------------------------------------------|
D||-----------------------12-12-12-11-11--------|
A||o-9-9-9-10-10-10-9-9-9----------------10-10-o|
E||---------------------------------------------|

guitar solo rhythm
guitar 1
E||----------------------------|
B||----------------------------|
G||-7/12-(12)\6--(6)/10--9-\-6-|
D||-5/10-(10)\4--(4)/-8--7-\-4-|
A||-5/10-(10)\4--(4)/-8--7-\-4-|
E||----------------------------|

guitar solo
guitar 2
E||------|----------------------------------12h13h12-----------------------|
B||------|-15--13----13-17~~~~-----12h13h15----------15/20~~~-18-17-18-17~-|
G||-6/14-|--------14------------14-----------------------------------------|
D||------|-----------------------------------------------------------------|
A||------|-----------------------------------------------------------------|
E||------|-----------------------------------------------------------------|

E||----------------------|-------------------12h13/17\13-12h13p12-|
B||----------------12p11-|-13-15-13-12-13-15----------------------|
G||------12p9-9h10-------|----------------------------------------|
D||-9h10-----------------|----------------------------------------|
A||----------------------|----------------------------------------|
E||----------------------|----------------------------------------|

E||---------------------------------------------|
B||-15-13-12h13p12----------12h13p12------------|
G||----------------14-12\10----------14-12\10p9-|
D||---------------------------------------------|
A||---------------------------------------------|
E||---------------------------------------------|

E||----------------------------------------------------------------------|
B||----------------------------------------------------------------------|
G||-12p10p9------------------------------------------------------------5-|
D||---------12p10p9h10-9---------9h10p9-------------7-8h7--------------5-|
A||----------------------12-10-8--------12-10\8-7-8-------10p8p7-5-3-5---|
E||----------------------------------------------------------------------|

E||-----------------------------------|----------------------|
B||-----------------------------------|-12h13p12h13p12-15/17-|
G||-7---5---10---9---7/12---12--10--9-|----------------------|
D||-x---x----x---x---x--x----x---x--x-|----------------------|
A||-5---3----8---7---5/10---10---8--7-|----------------------|
E||-----------------------------------|----------------------|

E||-----------------------------------------------------------------------|
B||-15p13h15p13-12/14\12p10-12p10p9---------------------------------------|
G||---------------------------------12p10p9h10p9----9h10p9---------9h10p9-|
D||----------------------------------------------10--------12p10p9--------|
A||-----------------------------------------------------------------------|
E||-----------------------------------------------------------------------|

   "Like     breath    -    ing___      in     Sul   -     fur___
E||----12h13-12h13p12--------------------------------------------------|
B||-13----------------12h13p12-----------------------------------------|
G||---------------------------9h10p9h10--------------------------------|
D||-------------------------------------9h10p9-7h8p7-------------------|
A||--------------------------------------------------7h8p7\5h6p5\3h4p3-|
E||--------------------------------------------------------------------|

outro
both guitars
E||---------------------|--------------------|
B||---------------------|--------------------|
G||----------8--8-7--3--|---------10-10-8--3-|
D||-0--1--0--6--6-5--1--|-0--1--0--8--8-6--1-|
A||-0--1--0--6--6-5--1--|-0--1--0--8--8-6--1-|
E||-0--1--0--6--6-5--1--|-0--1--0--8--8-6--1-|

                                     PM---------
E||---------------------|---------------------------|
B||---------------------|---------------------------|
G||----------8--8-7--3--|------------------------3--|
D||-0--1--0--6--6-5--1--|-0--1-1--0--------------1--|
A||-0--1--0--6--6-5--1--|-0--1-1--0--8-8-8-6-8-6-1--|
E||-0--1--0--6--6-5--1--|-0--1-1--0--8-8-8-6-8-6-1--|

end on
    PM
E||---||
B||---||
G||-3-||
D||-1-||
A||-1-||
E||-1-||

thats all guys, thanks for reading :)
Tap to rate this tab
# A B C D E F G H I J K L M N O P Q R S T U V W X Y Z