Song name
# A B C D E F G H I J K L M N O P Q R S T U V W X Y Z

Slipknot - Wait & Bleed tab

Help us improve GuitareTab! Take a short survey!
SLIPKNOT - WAIT AND BLEED

------------------------------------------------------------------------------ 
------------------------------------------------------------------------------ 
------------------------------------------------------------------------------ 
----0--------7---------1----------8------7--------------------8--------------- 
--------------------------------------5-----------7------6-----------------8-- 
-0--------7--------1----------/8---------------7----------------------8------- 
    I've   felt the hate rise up in me.____  Kneel down and clear the stone    

------------------------------------------------------------------------------ 
------------------------------------------------------------------------------ 
------------------------------------------------------------------------------ 
------------------------------------------------------------------------------ 
---------8-------------------------------------------------------------------- 
-----8------------------------------------------------------------------------ 
 of leaves.. .__                                                               

------------------------------------------------------------------------------ 
------------------------------------------------------------------------------ 
--14--14-14-14---14-14-14----14-14-15-15--15-15--14-14-14-14---14-14-14--14--- 
---x---x--x--x----x--x--x-----x--x--x--x---x--x---x--x--x--x----x--x--x---x--- 
--12--12-12-12---12-12-12----12-12-13-13--13-13--12-12-12-12---12-12-12--12--- 
------------------------------------------------------------------------------ 
 Gtr.2                                                                         

------------------------------------------------------------------------------ 
------------------------------------------------------------------------------ 
-14-15-15---15-15------------------------------------------------------------- 
--x--x--x----x--x------------------------------------------------------------- 
-12-13-13---13-13------------------------------------------------------------- 
------------------------------------------------------------------------------ 
 ok now both guitars do this                                                   

------------------------------------------------------------------------------ 
------------------------------------------------------------------------------ 
------------------------------------------------------------------------------ 
------------------------------------------------------------------------------ 
---------------------5----------------------5-------------------------5------- 
-0-0-0---0-0-0---0/6-----0-0-0---0-0-0--0/6--------0-0-0---0-0-0--0/6--------- 
                                                                               

------------------------------------------------------------------------------ 
------------------------------------------------------------------------------ 
------------------------------------------------------------------------------ 
------------------------------------------------------------------------------ 
-------------------------------------------1--4--1------------------1-4-1----- 
-0-0-0---0-0-0--------------0-0-0---0-0-0--1--4--1---0-0-0---0-0-0--1-4-1----- 
                  Good-bye!          Verse then back to chorus                 

------------------------------------------------------------------------------ 
------------------------------------------------------------------------------ 
------------------------------------------------------------------------------ 
------------------------------------------------------------------------------ 
---h--h----12---------b------------------------------------------------------- 
-12-13-15-------0--0-12------------------------------------------------------- 
 pretty much the song other than this little fill                              

------------------------------------------------------------------------------ 
------------------------------------------------------------------------------ 
------------------------------------------------------------------------------ 
------------------------------------------------------------------------------ 
-0-0-0---0-0-0---1--4--1----0-0-0---0-0-0---1--4--1----0-0-0---0-0-0---1--4--- 
-0-0-0---0-0-0---1--4--1----0-0-0---0-0-0---1--4--1----0-0-0---0-0-0---1--4--- 
 the ending goes like this. play open no muting!         And it waits for      

-----------------------------|------------------------------------------------ 
-----------------------------|------------------------------------------------ 
-----------------------------|------------------------------------------------ 
-----------------------------|------------------------------------------------ 
-1----0-0-0---0-0-0---1--4--1|------------------------------------------------ 
-1----0-0-0---0-0-0---1--4--1|------------------------------------------------ 
 you!!                          And Thats It!
Related for Wait & Bleed tab