Song name
# A B C D E F G H I J K L M N O P Q R S T U V W X Y Z

Slipknot - Psychosocial tab

Band: Slipknot
Song: Psychosocial (solo)
Tuning: Drop A

hammer on:   h
pull off:    p
slide up:    /
slide down:  \
vibrato:     ~
bend up:     BU(?)
bend return: BU(?)(?)

right, ive taken this solo from a total guitar magazine so it should
be pretty much perfect. micks solo is a mixture of alternate picking
and legato, where as jims solo is mainly glisando (sliding) and legato

hope you enjoy this tab, please rate :)


mick's solo

E||-------------------------------------------------|
B||-------------------------------------------------|
G||------------------------------------------7h8h10-|
D||-------5-6-8p6p5-------------5-6-8-6h8h10--------|
A||-5-6-8-----------8p6p5-5-6-8---------------------|
E||-------------------------------------------------|

E||---------------------------------------------------------------------|
B||---------------------------------------------------------------------|
G||---------8-10-12p10p8------------------10-------------------12-13-15-|
D||-8-10-12--------------12p10p8/10-12-13----13-12-10/12-13-15----------|
A||---------------------------------------------------------------------|
E||---------------------------------------------------------------------|

E||----------------------------------------------------------------------|
B||----------------------------------------------------12-13-15----------|
G||----------13-15-17-15-13-------------------11-13-15----------13-15-17-|
D||-13-15-17----------------17-15-13-12-13-15----------------------------|
A||----------------------------------------------------------------------|
E||----------------------------------------------------------------------|

E||-------------------------------------------|
B||-13-15-16/18-16-15----------------13-15-16-|
G||-------------------17-15-13-15-17----------|
D||-------------------------------------------|
A||-------------------------------------------|
E||-------------------------------------------|

slow part
E||-----------------------------------11/15--------------------------|
B||-15~~~~~-16p15p13-15~~~~~-16p15p13-------16-15-13-15-15BU(17)(15)-|
G||------------------------------------------------------------------|
D||------------------------------------------------------------------|
A||------------------------------------------------------------------|
E||------------------------------------------------------------------|

E||------------------------------------|
B||------------------------------------|
G||-12BU(14)(12)--7BU(8)(7)-8-7--------|
D||-----------------------------10-8-6-|
A||------------------------------------|
E||------------------------------------|


jim's solo

E||-11BU(13)(11)-10-11~~-10h11p10------|-10/15----------------------------|
B||-------------------------------11~~-|-------16-15-16-15h16p15----15-16-|
G||------------------------------------|-------------------------17-------|
D||------------------------------------|----------------------------------|
A||------------------------------------|----------------------------------|
E||------------------------------------|----------------------------------|

E||---------------------------------------|
B||-15~~~~~-------------------------------|
G||------------7\5/7----(7)/10\7---7~~~~~-|
D||---------------------------------------|
A||---------------------------------------|
E||---------------------------------------|

E||-------------------------------------------------------|
B||-------------------------------------------------------|
G||----------------------------------------------12-------|
D||----------------------10h12h13p12p10/12h13h15----15-13-|
A||-10h11h13p11p10h11h13----------------------------------|
E||-------------------------------------------------------|

E||-------------------------------------------------------|
B||-------------------------------------------------------|
G||-12h13h15p13/10----------------10h12h13p12p10----------|
D||----------------13p12p10h12h13----------------13p12p10-|
A||-------------------------------------------------------|
E||-------------------------------------------------------|

                            slow part
E||-----------------------|-----------------------|
B||-----------------------|-8--8------------------|
G||-----------------------|-------8--8-7h8p7----7-|
D||-8--8------------------|------------------10---|
A||-------12p10--8--10~~~-|-----------------------|
E||-----------------------|-----------------------|

E||-------------------------|
B||-------------------------|
G||-------------------------|
D||-8h10p8p7-8-7------------|
A||--------------6-5-3/5~~~-|
E||-------------------------|
Tap to rate this tab
# A B C D E F G H I J K L M N O P Q R S T U V W X Y Z