Slipknot - Sic tab

This is the PROPER intro to (Sic) by Slipknot. (Because nobody else would tab it right....)

---------------------------------------------------------------------------
    (parentheses depict an optional note)
    (.= muted note)
 --------------------------------------------------------------------------
                                Tuning: Drop B

|-------------------------------------|-------------------------------------|
|-------------------------------------|-------------------------------------|
|-------------------------------------|-------------------------------------|
|--------------------------(2)--------|--------------------------(1)--------|
|--1-1--1-1-1--1-1-1--1-1-1-2---------|--0-0--0-0-0--0-0-0--0-0-0-1---------|
|--1-1--1-1-1--1-1-1--1-1-1-2-rpt.x1--|--0-0--0-0-0--0-0-0--0-0-0-1--repeat-|
   .    . .    . .    . . .           |  .    . .    . .    . . .           |
                                      | above section starts at double bass |

Now, here is the PROPER way to do the outro:

|-----------------------------------------------------------------------------|
|-----------------------------------------------------------------------------|
|-----------------------------------------------------------------------------|
|-----------------------------------------------------------------------------|
|-----------------------------------------------------------------------------|
|-5-2-0-2-0-2-5-2-0-2-0-2-5-2-0-2-5-2-0-2-0-2-5-2-0-2-0-2-5-2-0-2---repeat----|
Tap to rate this tab
 
# A B C D E F G H I J K L M N O P Q R S T U V W X Y Z