Song name
# A B C D E F G H I J K L M N O P Q R S T U V W X Y Z

Slipknot - Left Behind tab

Left Behind:


TUNING Drop D amd 1 and 1/2 step (B F# B E G# C#)

Riff 1:
C# |------------------------------------|
G# |------------------------------------|
E  |------------------------------------|
B  |------------------------------------|
F# |-1-0-0----------1/6-6-----1-1-------|
B  |-------3-3-3-0--------0-0-----0-1/3-|

Riff 2:
C# |------------------------------------|
G# |------------------------------------|
E  |------------------------------------|
B  |------------------------------------|
F# |-------1-1---1/6-6-----1-1----------|
B  |-1-0-0-----0-------0-0-----0-1/3----|

Riff 3:
C# |------------------------------------|
G# |------------------------------------|
E  |------------------------------------|
B  |------------------------------------|
F# |-------1-1---1/6-6-6-6-6-6-6-6-6----| 
B  |-1-0-0-----0------------------------|

Riff 4:
C# |--------------------------------------------------------|
G# |--------------------------------------------------------|
E  |--------------8--7------------------------8--7----------|
B  |-1-0-0-3-0--0-x--x-6--6-6-6--1-0-0-3-0--0-x--x-3--3-3-3-|
F# |-1-0-0-3-0--0-6--5-6--6-6-6--1-0-0-3-0--0-6--5-3--3-3-3-|
B  |-1-0-0-3-0--0------6--6-6-6--1-0-0-3-0--0------3--3-3-3-|

Riff 5:
C# |------------------------------------------------------|
G# |------------------------------------------------------|
E  |-----3-3-----3-3---3----------------------------------|
B  |-3-3-1-1-3-3-1-1-3-1--6-6-6-6-6-6-6-6-1-1-1-1-1-1-1-1-|
F# |-1-1-----1-1-----1----6-6-6-6-6-6-6-6-1-1-1-1-1-1-1-1-|
B  |----------------------6-6-6-6-6-6-6-6-1-1-1-1-1-1-1-1-|
PM - - - - - - - - - -

Riff 6 (gtr 1)
C# |-------------------------| -Use diminishing volume or w/
G# |-------------------------|  digital delay
E  |-3-3-3-3-3-3-3-3-3-3-3-3-|
B  |-1-1-1-1-1-1-1-1-1-1-1-1-|
F# |-------------------------|
B  |-------------------------|
PM - - - - - - - - - - -

Riff 7 (gtr 2)
C# |---------------------------------------------------|
G# |---------------------------------------------------|
E  |---------------------------------------------------|
B  |------1111------1111-----111-----------------------|
F# |-1111------1111------111---------------------------|
B  |-----------------------------6666666666-1111111111-|
PM ---- ---- ---- ---- --- --- ---------- ----------

Riff 8:
C# |--------------------|
G# |--------------------|
E  |----------3-3-3-3---|
B  |-0--------1-1-1-1-0-|
F# |-0----------------0-|
B  |-0----------------0-|



-If it sounds good email me...Sk8er4atm@yahoo.com








Tap to rate this tab
# A B C D E F G H I J K L M N O P Q R S T U V W X Y Z