Song name
# A B C D E F G H I J K L M N O P Q R S T U V W X Y Z

Slipknot - Execute tab

Drop D tuning, down 1 1/2 steps:
(low to high) B-F#-B-E-G#-C#
Words and Music by Slipknot
100% Correct. Taken out of the Hal Leonard Slipknot "All Hope is Gone Tab Book"

                                          .Execute.(1:49)
Free Time
N.C.
Riff A
Gtr.1(dist.)               Harm.                              Harm. w/bar        End Riff A
C#|-------------------------(7)---------------------------------------(7)-------|
G#|---------------------------------------------------------------------\-------|
E |----------------------------------------------------------------------\------|
B |-------X/~~~~~~~~~--------------------------X/~~~~~~~~~----------------\-----|
F#|-------X/~~~~~~~~~--------------------------X/~~~~~~~~~-----------------\----|
B |-------X/~~~~~~~~~--------------------------X/~~~~~~~~~------------------\---|        
                                                                            -1

Gtr. 1: w/Riff A (till end)

Spoken: It appears that we have reached the edge,
that zenith where stimuli and comatose collide. 
Forty years ago, The Man proclaimed the Age of the Gross to be upon us,
and even though The Man was destroying our heritage and insulting our intelligence,
that era has become very real.
We labor for pleasure and abhor the guilt of pressure.
My generation will go down as the architects of contemporary disgust.
Some have fought and died.
Others have allowed the strong to be butchered 
for a price they themselves don't care about and will never understand.
I myself am beleaguered by the selfish face of a kind of man that is not Mankind. 
Distrust in information.



Fundamentalism of opinion. Catastrophic boredom and a fanatical devotion to that 
which does not matter.




Gtr.2 (dist.)                                      *
C#|---------------------------------|---------------------------------|
G#|---------------------------------|---------------------------------|
E |---------------------------------|---------------------------------|
B |--0------------------------------|---------------------------------|
F#|--0------------------------------|---------------------------------|
B |--0------------------------------|---------------------------------|
                                               *Hold chord til end   

                                          

Gtr.3 (dist.)                                   **
C#|---------------------------------|---------------------------------|
G#|---------------------------------|---------------------------------|
E |---------------------------------|-At (1:13 the Drums come in)-----|
B |---------------------------------|---------------------------------|
F#|---------------------------------|---------------------------------|
B |---------------------------------|--0-------------------0----------|
                                      T.P                 T.P.
                                      **Continue with Tremelo till end.


Where is your glory now, people?
Where are your gods and politicians?
Where is your shame and salvation?
You rage for no reason because you have no reason.
What have you ever fought for?
What have you ever bled for?
The face of the Earth is scarred with the walking dead.
The Age of the Gross is a living virus.
This is the future you have created.
This is the world you have set ablaze.
All your lies are coming true.
All freedom is lost.
All hope is gone.







Tablature Legend
-----------------
X/~ - Dead Note w. String Noise
Harm. - Harmonic
Harm. w/ bar - Tremelo bar release down
T.P. - Tremelo Picking
Tap to rate this tab
 
# A B C D E F G H I J K L M N O P Q R S T U V W X Y Z