Slipknot - Killers Are Quiet tab

	Killers Are Quiet

b: Bend
/: Slide


Intro: (Clean)
d:-------------------------------------------------|
A:-------------------------------------------------|
F:-------------------------------------------------|
C:-------------------------------------------------|
G:-14--------------14------------------------------|
C:----0-14-----------------------------------------|

Pre-verse: (Distorted)
d:-------------------------------------------------|
A:-------------------------------------------------|
F:-------------------------------------------------|
C:-b4-4--4-2----b4-4-------------------------------|
G:-b2-2--2-0----b2-2-------------------------------|
C:-------------------------------------------------|

or

d:-------------------------------------------------|
A:-------------------------------------------------|
F:-------------------------------------------------|
C:-4/5-4--4-2----4/5-4-----------------------------|
G:-2/3-2--2-0----2/3-2-----------------------------|
C:-------------------------------------------------|

Verse: (Distorted)

d:-------------------------------------------------|
A:-------------------------------------------------|
F:-------------------------------------------------|
C:-------------------------------------------------|
G:-b2-2--2-0----b2-2-------------------------------|
C:-------------------------------------------------|

or

d:-------------------------------------------------|
A:-------------------------------------------------|
F:-------------------------------------------------|
C:-------------------------------------------------|
G:-2/3-2-2-0----2/3-2------------------------------|
C:-------------------------------------------------|


Intro
Pre-verse
Verse
Pre-verse
Verse
Pre-verse
Verse
Pre-verse

And then percussion and bass.
Tap to rate this tab
 
# A B C D E F G H I J K L M N O P Q R S T U V W X Y Z