Song name
# A B C D E F G H I J K L M N O P Q R S T U V W X Y Z

Slipknot - Psychosocial tab

Intro - guitar 1
e|-----------------------------------------------------|
b|-----------------------------------------------------|
g|-----------------------------------------------------|
d|-------------10b--------------------------10b--------|
a|-----------------------------------------------------|
e|-0--0--0-0-0-----0--3h5-0-0-0-0-0-0-0-0-0-----0--3h5-|
pm  .  .  . . .     .      . . . . . . . . .     .

e|---------------------------------------------------------|
b|---------------------------------------------------------|
g|---------------------------------------------------------| 
d|----------6*---------------------------------------------|
a|---------------------------------------------------------|
e|-0--0-0-0-----0--3h5-0-0-5-5-5-5-6-6-6-6-8-8-8-8-7-7-7-7-|
pm  .  . . .     .      . . . . . . . . . . . . . . . . . .

e|---------------------------------------------------------|
b|---------------------------------------------------------|
g|---------------------------------------------------------| 
d|----------10b------------------------------------10b-----|
a|---------------------------------------------------------|
e|-0--0-0-0-----0--3h5-0-0-5-5-5-5-6-6-6-6-8-8-8-8---------|
pm  .  . . .     .      . . . . . . . . . . . . . . . . .

e|-----------------------------------------------------------------|
b|-----------------------------------------------------------------|
g|-----------------------------------------------------------------|
d|-----------------------------------------------------------------|
a|-----------------------------------------------------------------|
e|-6-6-6-6-7-7-7-7-9-9-9-9-8-8-8-8-6-6-6-6-7-7-7-7-9-9-9-9-8-8-8-8-|
pm  . . . . . . . . . . . . . . . . . . . . . . . . . . . . . . . .

main riff
e|-------------|
b|-------------|
g|-------------|
d|-------------|
a|-0-0-0-0-0-0-|
e|-5-0-4-0-4h5-|
Tap to rate this tab
 
# A B C D E F G H I J K L M N O P Q R S T U V W X Y Z